PrimaNota.ru - самый крупный в мире бесплатный архив песенных текстов, аккордов, табулатур и нот


New Years Day - Scream - таба, видео

Регистрация Запомнить меня
Войти через:  Facebook Google Twitter Vk Yandex Mail.ru

New Years Day - Scream - таба, видео

Печатать
Просмотров: 210
Уроки эстрадного вокала в Санкт-Петербурге
-------------------------------------------------------------------------------
                            NEW YEARS DAY - Scream
-------------------------------------------------------------------------------
Tabbed by: GaleForceRocks
E-mail: galeforce100@icloud.com

Tuning: Drop B

Intro Part 1: Rhythm Guitar
C |-----------------------------------------------------------------|
G#|-----------------------------------------------------------------|
E |-----------------------------------------------------------------|
B |-----------------------------------------------------------------|
F#|-----------------------------------------------------------------|
B |-0-0-0-0-0-0-7-7-7-7-7-7-5-5-7-7-8-8-8-8-8-8-5-5-5-5-5-5-8-8-7-7-|

C |-----------------------------------------------------------------|
G#|-----------------------------------------------------------------|
E |-----------------------------------------------------------------|
B |-----------------------------------------------------------------|
F#|-----------------------------------------------------------------|
B |-0-0-0-0-0-0-7-7-7-7-7-7-5-5-7-7-8-8-8-8-8-8-5-5---8-7-5-7-5-3-5-|

Intro Part 2: Rhythm Guitar (x2)
C |-----------------------------------------------------------------|
G#|-----------------------------------------------------------10----|
E |-----------------------------------------------------------8-----|
B |-----------3-------------------------------3---------------7-----|
F#|-0-0---0-----1-0-0-1-0---x-3-----0-0---0-----1-0-0-1-0---x-6-----|
B |-0-0---0---------0-1-0---x-3-----0-0---0---------0-1-0---x-------|

Verse 1 Part 1: Silent

Verse 1 Part 2: Rhythm Guitar (x2)
C |-----------------------------------------------------------------|
G#|-----------------------------------------------------------------|
E |-----------------------------------------------------------------|
B |---------------------------------------------5b--5b--------------|
F#|-0-0---0-0-0-5b--5b------5b------3-3---3-3-3-------------5b------|
B |-0-0---0-0-0-----------0---------3-3---3-3-3-----------0---------|
                          *                               *
Pre-Chorus 1: Same as Intro Part 1

Chorus 1: Rhythm Guitar
C |-----------------------------------------------------------------|
G#|-----------------------------------------------------------------|
E |-----------------------------------------------------------------|
B |-0-0---0---0-0-0-3-------7-------0-0---0---0-0-0-3-------7-------|
F#|-0-0---0---0-0-0-3-------7-------0-0---0---0-0-0-3-------7-------|
B |-0-0---0---0-0-0-3-------7-------0-0---0---0-0-0-3-------7-------|

C |-----------------------------------------------------------------|
G#|-----------------------------------------------------------------|
E |-----------------------------------------------------------------|
B |-8-8-8-8-8-8-8-8-5-5-5-5-5-5-5-5-8-8-8-8-8-8-8-8-5-5-5-5-7-7-7-7-|
F#|-8-8-8-8-8-8-8-8-5-5-5-5-5-5-5-5-8-8-8-8-8-8-8-8-5-5-5-5-7-7-7-7-|
B |-8-8-8-8-8-8-8-8-5-5-5-5-5-5-5-5-8-8-8-8-8-8-8-8-5-5-5-5-7-7-7-7-|

C |-----------------------------------------------------------------|
G#|-----------------------------------------------------------------|
E |-----------------------------------------------------------------|
B |-0-0---0---0-0-0-3-------7-------0-0---0---0-0-0-3-------7-------|
F#|-0-0---0---0-0-0-3-------7-------0-0---0---0-0-0-3-------7-------|
B |-0-0---0---0-0-0-3-------7-------0-0---0---0-0-0-3-------7-------|

C |-----------------------------------------------------------------|
G#|-----------------------------------------------------------------|
E |-----------------------------------------------------------------|
B |-8-8-8-8-8-8-8-8-5-5-5-5-5-5-5-5-8-8-8-8-8-8-8-8-----------------|
F#|-8-8-8-8-8-8-8-8-5-5-5-5-5-5-5-5-8-8-8-8-8-8-8-8-----------------|
B |-8-8-8-8-8-8-8-8-5-5-5-5-5-5-5-5-8-8-8-8-8-8-8-8-2-2-2-2-3-3-3-3-|

Post-Chorus 1: Same as first half of Intro Part 1

Verse 2 Part 1: Silent

Verse 2 Part 2: Rhythm Guitar
C |-----------------------------------------------------------------|
G#|-----------------------------------------------------------------|
E |-----------------------------------------------------------------|
B |-----------------------------------------------------------------|
F#|-0-0-0-0-0-0-0-0-0-0-0-0-0-0-0-0-3-3-3-3-3-3-3-3-3-3-3-3-3-3-3-3-|
B |-0-0-0-0-0-0-0-0-0-0-0-0-0-0-0-0-3-3-3-3-3-3-3-3-3-3-3-3-3-3-3-3-|
    * * * * * * * * * * * * * * * * * * * * * * * * * * * * * * * *
C |-----------------------------------------------------------------|
G#|-----------------------------------------------------------------|
E |-----------------------------------------------------------------|
B |-----------------------------------------------------------------|
F#|-2-2-2-2-2-2-2-2-2-2-2-2-2-2-2-2-5-5-5-5-5-5-5-5-5-5-5-5-5-5-5-5-|
B |-2-2-2-2-2-2-2-2-2-2-2-2-2-2-2-2-5-5-5-5-5-5-5-5-5-5-5-5-5-5-5-5-|
    * * * * * * * * * * * * * * * * * * * * * * * * * * * * * * * *

Pre-Chorus 2: Same as Pre-Chorus 1

Chorus 2: Same as Chorus 1

Pre-Solo: Rhythm Guitar
C |-----------------------------------------------------------------|
G#|-----------------------------------------------------------------|
E |-----------------------------------------------------------------|
B |-----------------------------------------------------------------|
F#|-0-0---------------------------0-0-0-----------------------------|
B |-0-0---------------------------0-0-0-----------------------------|
    * *                           * * *

Solo: Lead Guitar
C |-------------------------------------------------------------15-13-|
G#|-8b--------------8b+-------------8b+-------------------------------|
E |-------------------------------------------------------------------|
B |-------------------------------------------------------------------|
F#|-------------------------------------------------------------------|
B |-------------------------------------------------------------------|

C |-15-13-12-13-12----12----------------------------|
G#|----------------15----15-13-15-13----13----------|
E |----------------------------------15----15-14-12-|
B |-------------------------------------------------|
F#|-------------------------------------------------|
B |-------------------------------------------------|

[Double speed]
C |-------------------------12----12-13-12-13-15-13-|
G#|-------13----13-15-13-15----15-------------------|
E |-14-15----15-------------------------------------|
B |-------------------------------------------------|
F#|-------------------------------------------------|
B |-------------------------------------------------|

C |-------12----12-13-12-13-15-13-15-17-15-17-18-17-|
G#|-13-15----15-------------------------------------|
E |-------------------------------------------------|
B |-------------------------------------------------|
F#|-------------------------------------------------|
B |-------------------------------------------------|

C |----------------17----17-18-17-18-20-18-17-18-20-22----------------------------------------------|
G#|-17-18-20-18-20----20----------------------------------------------------------------------------|
E |-------------------------------------------------------------------------------------------------|
B |-------------------------------------------------------------------------------------------------|
F#|-------------------------------------------------------------------------------------------------|
B |-------------------------------------------------------------------------------------------------|

Solo: Rhythm Guitar: Same as Intro Part 2

Bridge: Rhythm Guitar (x2)
C |-----------------------------------------------------------------|
G#|-----------------------------------------------------------------|
E |-----------------------------------------------------------------|
B |-----------------------------------------------------------------|
F#|-0-0-0-0---xx5-8-0-0-0---8-5-----0-0-0-0---xx5-8-1---x-1---x-1---|
B |-0-0-0-0---xx----0-0-0-------8-7-0-0-0-0---xx----1---x-1---x-1---|

Chorus 3: Rhythm Guitar
C |-----------------------------------------------------------------|
G#|-----------------------------------------------------------------|
E |-----------------------------------------------------------------|
B |-----------------------------------------------------------------|
F#|-----------------------------------------------------------------|
B |-0-0---0---0-0-0-3-3-3-3-7-7-7-7-0-0---0---0-0-0-3-3-3-3-7-7-7-7-|

C |-----------------------------------------------------------------|
G#|-----------------------------------------------------------------|
E |-----------------------------------------------------------------|
B |-8-8-8-8-8-8-8-8-5-5-5-5-5-5-5-5-8-8-8-8-8-8-8-8-5-5-5-5-7-7-7-7-|
F#|-8-8-8-8-8-8-8-8-5-5-5-5-5-5-5-5-8-8-8-8-8-8-8-8-5-5-5-5-7-7-7-7-|
B |-8-8-8-8-8-8-8-8-5-5-5-5-5-5-5-5-8-8-8-8-8-8-8-8-5-5-5-5-7-7-7-7-|

C |-----------------------------------------------------------------|
G#|-----------------------------------------------------------------|
E |-----------------------------------------------------------------|
B |-0-0---0---0-0-0-3-------7-------0-0---0---0-0-0-3-------7-------|
F#|-0-0---0---0-0-0-3-------7-------0-0---0---0-0-0-3-------7-------|
B |-0-0---0---0-0-0-3-------7-------0-0---0---0-0-0-3-------7-------|

C |-----------------------------------------------------------------|
G#|-----------------------------------------------------------------|
E |-----------------------------------------------------------------|
B |-8-8-8-8-8-8-8-8-5-5-5-5-5-5-5-5-8-8-8-8-8-8-8-8-----------------|
F#|-8-8-8-8-8-8-8-8-5-5-5-5-5-5-5-5-8-8-8-8-8-8-8-8-----------------|
B |-8-8-8-8-8-8-8-8-5-5-5-5-5-5-5-5-8-8-8-8-8-8-8-8-2-2-2-2-3-3-3-3-|

Outro: Same as Bridge (x2)

Ends on:
C |-----------------------------------------------------------------|
G#|-----------------------------------------------------------------|
E |-----------------------------------------------------------------|
B |-----------------------------------------------------------------|
F#|-0---------------------------------------------------------------|
B |-0---------------------------------------------------------------|
    *

Thanks for reading the tab, please rate and comment corrections!

************************************

| *   palm mute
| /   slide up
| \   slide down
| h   hammer-on
| p   pull-off
| ~   vibrato
| +   harmonic
| x   Mute note
| b   Bend
| pb  Pre-bend
| br  Bend release
| pbr Pre-bend release
| brb Bend release bend

************************************
Добавлено: 19.02.2016
Другие материалы по этой песне:

Страница создана 19.02.2016
http://primanota.ru/new-years-day/scream-chords.htm
Привет, Гость.
Предлагаем пройти революционный курс по гитаре.
Подарок от PrimaNota.Ru, забирай!