PrimaNota.ru - самый крупный в мире бесплатный архив песенных текстов, аккордов, табулатур и нот


New Years Day - Relentless - таба, видео

Регистрация Запомнить меня
Войти через:  Facebook Google Twitter Vk Yandex Mail.ru

New Years Day - Relentless - таба, видео

Печатать
Просмотров: 105
-------------------------------------------------------------------------------
                   NEW YEARS DAY - Relentless (Intro)
-------------------------------------------------------------------------------
Tabbed by: GaleForceRocks
E-mail: galeforce100@icloud.com

Tuning: Drop A

B |-------------------------------------------------|
F#|-------------------------------------------------|
D |-------------------------------------------------|
A |-10-9--10-9--2--9--10-9--10-9--------x--x--x--x--|
E |-10-9--10-9--2--9--10-9--10-9--------x--x--x--x--|
A |-10-9--10-9--2--9--10-9--10-9--------x--x--x--x--|

B |-------------------------------------------------|
F#|-------------------------------------------------|
D |-------------------------------------------------|
A |-10-9--10-9--2--9--10-9--x-----------------------|
E |-10-9--10-9--2--9--10-9--x-----------------------|
A |-10-9--10-9--2--9--10-9--x--0-----2-----7--------|

B |-------------------------------------------------|
F#|-------------------------------------------------|
D |-------------------------------------------------|
A |-10-9--10-9--2--9--10-9--10-9--------x--x--x--x--|
E |-10-9--10-9--2--9--10-9--10-9--------x--x--x--x--|
A |-10-9--10-9--2--9--10-9--10-9--------x--x--x--x--|

B |-------------------------------------------------|
F#|-------------------------------------------------|
D |-------------------------------------------------|
A |-10-9--10-9--2--9--10-9--x-----------------------|
E |-10-9--10-9--2--9--10-9--x-----------------------|
A |-10-9--10-9--2--9--10-9--x--0-----0-----0--------|
Добавлено: 19.02.2016
Вам также может быть интересно:
Другие материалы по этой песне:

Страница создана 19.02.2016
http://primanota.ru/new-years-day/relentless-chords.htm
Привет, Гость.
Предлагаем пройти революционный курс по гитаре.
Подарок от PrimaNota.Ru, забирай!