PrimaNota.ru - самый крупный в мире бесплатный архив песенных текстов, аккордов, табулатур и нот


New Years Day - Anthem Of The Unwanted - таба, видео

Регистрация Запомнить меня
Войти через:  Facebook Google Twitter Vk Yandex Mail.ru

New Years Day - Anthem Of The Unwanted - таба, видео

Печатать
Просмотров: 160
Уроки эстрадного вокала в Санкт-Петербурге
-------------------------------------------------------------------------------
                   NEW YEARS DAY - Anthem Of The Unwanted
-------------------------------------------------------------------------------
Tabbed by: GaleForceRocks
E-mail: galeforce100@icloud.com

Tuning: Drop B

Intro Part 1: Rhythm Guitar
C |-----------------------------------------------------------------|
G#|-----------------------------------------------------------------|
E |-----------------------------------------------------------------|
B |-----------------------------------------------------------------|
F#|-----------------------------------------------------------------|
B |-2-2-2-2-2-2-2-2-2-2-2-2-0-0-0-0-3-3-3-3-3-3-3-3-3-3-3-3-0-0-0-0-|

C |-----------------------------------------------------------------|
G#|-----------------------------------------------------------------|
E |-----------------------------------------------------------------|
B |-----------------------------------------------------------------|
F#|-----------------------------------------------------------------|
B |-2-2-2-2-2-2-2-2-2-2-2-2-0-0-0-0-3-3-3-3-3-3-3-3-----------------|

Intro Part 2: Rhythm Guitar (x2)
C |-----------------------------------------------------------------|
G#|---------------------------12------------------------------------|
E |---------------------------10------------------------------------|
B |-3-2-2---0-2-2-0-3-0-2---x-9-----3-2-2---0-2-2-0-3-3-3-3-0-0-0-0-|
F#|-3-2-2---0-2-2-0-3-0-2---x-8-----3-2-2---0-2-2-0-3-3-3-3-0-0-0-0-|
B |-3-2-2---0-2-2-0-3-0-2---x-------3-2-2---0-2-2-0-3-3-3-3-0-0-0-0-|

Verse 1: Rhythm Guitar (x2)
C |-----------------------------------------------------------------|
G#|-----------------------------------------------------------------|
E |-----------------------------------------------------------------|
B |-----------------------------------------------------------------|
F#|-----------------------------------------------------------------|
B |-2-2-2-2-2-2-2-2-2-2-2-2-0-0-0-0-3-3-3-3-3-3-3-3-3-3-3-3-0-0-0-0-|

Pre-Chorus 1: Rhythm Guitar
C |-----------------------------------------------------------------|
G#|-----------------------------------------------------------------|
E |-----------------------------------------------------------------|
B |-2-2-2-2-2-2-2-2-5-5-5-5-5-5-5-5-3-3-3-3-3-3-3-3-3-3-3-3-3-3-3-3-|
F#|-2-2-2-2-2-2-2-2-5-5-5-5-5-5-5-5-3-3-3-3-3-3-3-3-3-3-3-3-3-3-3-3-|
B |-2-2-2-2-2-2-2-2-5-5-5-5-5-5-5-5-3-3-3-3-3-3-3-3-3-3-3-3-3-3-3-3-|

C |-----------------------------------------------------------------|
G#|-----------------------------------------------------------------|
E |-----------------------------------------------------------------|
B |-2-2-2-2-2-2-2-2-5-5-5-5-5-5-5-5-3-3-3-3-3-3-3-3-3-3-3-3-3-3-3-3-|
F#|-2-2-2-2-2-2-2-2-5-5-5-5-5-5-5-5-3-3-3-3-3-3-3-3-3-3-3-3-3-3-3-3-|
B |-2-2-2-2-2-2-2-2-5-5-5-5-5-5-5-5-3-3-3-3-3-3-3-3-3-3-3-3-3-3-3-3-|
                                    * * * * * * * * * * * *
Chorus 1: Same as Intro Part 2 (x4)

Verse 2 Part 1: Rhythm Guitar
C |-----------------------------------------------------------------|
G#|-----------------------------------------------------------------|
E |-----------------------------------------------------------------|
B |-----------------------------------------------------------------|
F#|-----------------------------------------------------------2---2-|
B |-2-2-2-2-2-2-2-2-2-2-2-2-2-5-2-5-3-3-3-3-3-3-3-3-0-0-0-0-0---0---|

C |-----------------------------------------------------------------|
G#|-----------------------------------------------------------------|
E |-----------------------------------------------------------------|
B |-------------------------------------------------0---------------|
F#|-------------------------------------------------0---------------|
B |-2-2-2-2-2-2-2-2-2-2-2-2-2-5-2-5-3-3-3-3-3-3-3-3-0---------------|

Verse 2 Part 2: Rhythm Guitar

C |-----------------------------------------------------------------|
G#|-----------------------------------------------------------------|
E |-----------------------------------------------------------------|
B |-2---2---2-------x---2---x---2-------2-2-2---2---5---5---5---5---|
F#|-2---2---2-------x---2---x---2-------2-2-2---2---5---5---5---5---|
B |-2---2---2-------x---2---x---2-------2-2-2---2---5---5---5---5---|
                                        * * *   *
C |-----------------------------------------------------------------|
G#|-----------------------------------------------------------------|
E |-----------------------------------------------------------------|
B |-3---3---3-------x---3---x---0-------0-0-0---0-------------------|
F#|-3---3---3-------x---3---x---0-------0-0-0---0---5b--------------|
B |-3---3---3-------x---3---x---0-------0-0-0---0-------------------|
                                        * * *   *

C |-----------------------------------------------------------------|
G#|-----------------------------------------------------------------|
E |-----------------------------------------------------------------|
B |-2---2---2-------x---2---x---2-------2-2-2---2---5---5---5---5---|
F#|-2---2---2-------x---2---x---2-------2-2-2---2---5---5---5---5---|
B |-2---2---2-------x---2---x---2-------2-2-2---2---5---5---5---5---|
                                        * * *   *
C |-----------------------------------------------------------------|
G#|-----------------------------------------------------------------|
E |-----------------------------------------------------------------|
B |-3---3---3-------x---3---x---0-------0-0-0---0---6---\---\---\---|
F#|-3---3---3-------x---3---x---0-------0-0-0---0---6---\---\---\---|
B |-3---3---3-------x---3---x---0-------0-0-0---0---6---\---\---\---|
                                        * * *   *
Pre-Chorus 2: Same as Pre-Chorus 1

Chorus 2: Same as Chorus 1

Bridge: Lead Guitar (x2)
C |-1---------------7---------------12--------------12--------------8/12------------|
G#|-1-------/---8---8-----------8---15----------8---10----------------10------------|
E |-2-------/---9-------------------------------------------------------------------|
B |---------------------------------------------------------------------------------|
F#|---------------------------------------------------------------------------------|
B |---------------------------------------------------------------------------------|
[End of Chorus 2..][Bridge...

C |-15--------------12--------------12--------------15------14------|
G#|-12--------------15--------------10--------------10------10------|
E |-----------------------------------------------------------------|
B |-----------------------------------------------------------------|
F#|-----------------------------------------------------------------|
B |-----------------------------------------------------------------|

Bridge: Rhythm Guitar (x4)
C |-----------------------------------------------------------------|
G#|-----------------------------------------------------------------|
E |-5-5-5-5-5-5-5-5-5-5-5-5-5-5-5-5---------------------------------|
B |-5-5-5-5-5-5-5-5-5-5-5-5-5-5-5-5-0-0-0-0-0-0-0-0-0-0-0-0-0-0-0-0-|
F#|-3-3-3-3-3-3-3-3-3-3-3-3-3-3-3-3-0-0-0-0-0-0-0-0-0-0-0-0-0-0-0-0-|
B |---------------------------------0-0-0-0-0-0-0-0-0-0-0-0-0-0-0-0-|

Pre-Chorus 3 Part 1: Rhythm Guitar (x2)
C |-----------------------------------------------------------------|
G#|-----------------------------------------------------------------|
E |-----------------------------------------------------------------|
B |-2-2-2-2-2-2-2-2-5-5-5-5-5-5-5-5-3-3-3-3-3-3-3-3-3-3-3-3-3-3-3-3-|
F#|-2-2-2-2-2-2-2-2-5-5-5-5-5-5-5-5-3-3-3-3-3-3-3-3-3-3-3-3-3-3-3-3-|
B |-2-2-2-2-2-2-2-2-5-5-5-5-5-5-5-5-3-3-3-3-3-3-3-3-3-3-3-3-3-3-3-3-|
    * * * * * * * * * * * * * * * * * * * * * * * * * * * * * * * *
Pre-Chorus 3 Part 2: Rhythm Guitar
C |---------------------------------|
G#|---------------------------------|
E |---------------------------------|
B |-------------------------14\-\-\-|
F#|-------------------------14\-\-\-|
B |-3-2-2---0-2-2-0-3-0-2---14\-\-\-|

Chorus 3: Same as Chorus 1

Outro: Lead Guitar (x2)
C |---------------------------------12------------------------------|
G#|-5---------------------------------------------------------------|
E |-----------------------------------------------------------------|
B |-----------------------------------------------------------------|
F#|-----------------------------------------------------------------|
B |-----------------------------------------------------------------|

Outro: Rhythm Guitar (x2)
C |-----------------------------------------------------------------|
G#|-----------------------------------------------------------------|
E |-----------------------------------------------------------------|
B |-2-2-2-2-2-2-2-2-2-2-2-2-2-2-2-2-2-2-2-2-2-2-2-2-----------------|
F#|-2-2-2-2-2-2-2-2-2-2-2-2-2-2-2-2-2-2-2-2-2-2-2-2-----------------|
B |-2-2-2-2-2-2-2-2-2-2-2-2-2-2-2-2-2-2-2-2-2-2-2-2-3-3-3-3-0-0-0-0-|

Thanks for reading the tab, please rate and comment corrections!

************************************

| *   palm mute
| /   slide up
| \   slide down
| h   hammer-on
| p   pull-off
| ~   vibrato
| +   harmonic
| x   Mute note
| b   Bend
| pb  Pre-bend
| br  Bend release
| pbr Pre-bend release
| brb Bend release bend

************************************
Добавлено: 19.02.2016
Другие материалы по этой песне:

Страница создана 19.02.2016
http://primanota.ru/new-years-day/anthem-of-unwanted-chords.htm
Привет, Гость.
Предлагаем пройти революционный курс по гитаре.
Подарок от PrimaNota.Ru, забирай!