PrimaNota.ru - самый крупный в мире бесплатный архив песенных текстов, аккордов, табулатур и нот


New Trolls - Ti Ricordi Joe - таба, видео

Регистрация Запомнить меня
Войти через:  Facebook Google Twitter Vk Yandex Mail.ru

New Trolls - Ti Ricordi Joe - таба, видео

Печатать
Просмотров: 76
		   Titolo:  TI RICORDI JOE?
Artista: New Trolls
Trascrizione: Pietro Brocca




Tuning : E A D G B E

 RIFF1                            RIFF2
|----------------0---------0-----|----------------0---------0-----|
|----------------2---------2-----|----------------3---------3-----|
|----------------1---------1-----|----------------4---------4-----|
|----------2---------------------|----------4---------------------|
|----0---------------------------|----0---------------------------|
|--------------------------------|--------------------------------|


 RIFF3               Quante stagioni......
|--------------------------------|
|--------------------2-----------|
|--------------------2-----------|
|--------------------2-----------|
|--------0---2-------------------|
|0---2---------------------------|


  Riff1     Riff2
Ti ricordi, Joe
  Riff1   Riff2
Era verde laggiù
  Riff1      Riff2  Riff1    Riff2
Era verde il mare a Manila

  Riff1    Riff2
Ti ricordi Joe
  Riff1    Riff2
Eran tanti laggiù
  Riff1    Riff2    Riff1      Riff2
Coi fucili nascosti tra i fiori

Riff3

A     E           D    E    Riff3
Quante stagioni passarono là
A     E       D     F
Quanti colori inutili ormai
A            F      A         F
Per occhi già stanchi oppure già chiusi
    Riff1     Riff2
Per sempre

  Riff1    Riff2
Ti ricordi Joe
  Riff1       Riff2
Ti ricordi di Sam
  Riff1      Riff2      Riff1   Riff2
Con il cuore coperto di mosche

  Riff1      Riff2
E c'è ancora chi
  Riff1        Riff2
Va dicendo che noi
   Riff1     Riff2        Riff1   Riff2
Noi marines non avevamo un cuore

Riff3

A     E           D    E    Riff3
Quante stagioni passarono là
A     E       D     F
Quanti colori inutili ormai
A            F      A         F
Per occhi già stanchi oppure già chiusi
    Riff1     Riff2 ... (a finire su Riff1)
Per sempre
     
Добавлено: 11.08.2013
Вам также может быть интересно:
Другие материалы по этой песне:
  • Аккорды и текст

Страница создана 11.08.2013
http://primanota.ru/new-trolls/ti-ricordi-joe-chords.htm
Привет, Гость.
Предлагаем пройти революционный курс по гитаре.
Подарок от PrimaNota.Ru, забирай!