PrimaNota.ru - самый крупный в мире бесплатный архив песенных текстов, аккордов, табулатур и нот


New Reno - Так просто быть жестоким, так сложно прощать - аккорды и текст, видео

Регистрация Запомнить меня
Войти через:  Facebook Google Twitter Vk Yandex Mail.ru

New Reno - Так просто быть жестоким, так сложно прощать - аккорды и текст, видео

Печатать
Просмотров: 236
Уроки эстрадного вокала в Санкт-Петербурге
Так просто быть жестоким, так сложно прощать
New Reno
Вступление и первые два квадрата куплета
1.-----0--------0--------0--------2-----
2.--0-----0--0-----0--0-----0--0--------
3.---4--4-----4--4-----4--4-----4--4-4--
4.----2--2-2---2--2-2---2--2-2---0--0-0-
5.--4--------0-----------------2--------
6.--------------------0-----------------

Два вторых квадрата куплета
1.--0--0--0--0--0--0--0--0--0--0--0-----
2.--------------------------------------
3.---4--4-----4--4-----4--4-----4--4-4--
4.----2--2-2---2--2-2---2--2-2---0--0-0-
5.--4--------0-----------------2--------
6.--------------------0-----------------

Аккорды припев, проигрыш:
1.-----0-----0-----0-----0
2.-----0-----0-----0-----4
3.-----4-----4-----1-----4
4.-----2-----2-----2-----4
5.-----4-----0-----2-----2
6.-----0-----х-----0-----х

1-й
Ночь пройдёт. Растратив звёздный свет она уйдёт.
И утро заберёт себе. Твои слёзы и твои такие добрые сны.
И открыв глаза свои, проснёшься ты.

2-й
Только когда прозвенит самый последний звонок,
Ты всё поймёшь, ты схватишь трубку, но услышишь лишь гудок.
И не вернуть того что было, неужели это всё?
Не хватит сил сказать прощай, но что ещё?

Припев:
Но не было слов, и не было сил.
Когда я уже ни о чём не просил.
Вновь каждый раз, пытаясь сказать.
О том, что ты не сумела понять.
Так просто быть жестоким, так сложно прощать.
Так просто отвергать.

3-й
Но только ты не будешь знать, что я совсем другой.
Пока ещё не будешь знать, я навсегда с тобой.
И никогда, и никому тебя я не отдам!
Спи спокойно, я вернусь - вернусь сам.

Припев.
Добавлено: 24.11.2015
Вам также может быть интересно:
Другие материалы по этой песне:
  • Аккорды и текст

Страница создана 24.11.2015
http://primanota.ru/new-reno/tak-prosto-byt-zhestokim-tak-slozhno-proshhat-chords.htm
Привет, Гость.
Предлагаем пройти революционный курс по гитаре.
Подарок от PrimaNota.Ru, забирай!