PrimaNota.ru - самый крупный в мире бесплатный архив песенных текстов, аккордов, табулатур и нот


New Politics - Loyalties Among Theives - таба, бас-таба, видео

Регистрация Запомнить меня
Войти через:  Facebook Google Twitter Vk Yandex Mail.ru

New Politics - Loyalties Among Theives - таба, бас-таба, видео

Печатать
Просмотров: 65
-------------------------------------------------------------------------------
                   Loyalties Among Thieves - New Politics
-------------------------------------------------------------------------------
Tabbed by: genevieve//vengeance7xx@gmail.com//twitter:@paxamstump

Tuning: Standard

Intro 
(Oh woah woah)
e|---------------------------------------------------------------------------|
B|---------------------------------------------------------------------------|
G|---------------------------------------------------------------------------|
D|-1111-9-111111-1111-9-777-2222-2-2-44444444--------------------------------|
A|-1111-9-111111-1111-9-777-2222-0-0-44444444--------------------------------|
E|-9-9--7-9-9-9--9-9--7-555-0000-0-0-22222222--------------------------------|(x3)

What was that music in the back seat of your mom's car?
The soundtrack of revolution when it just starts
You tried to stop me right before we took it too far
Breaking your own heart, breaking your
e|---------------------------------------------------------------------------|
B|---------------------------------------------------------------------------|
G|---------------------------------------------------------------------------|
D|-1111-9-111111-1111-9-777-2222-2-2-44444444--------------------------------|
A|-1111-9-111111-1111-9-777-2222-0-0-44444444--------------------------------|
E|-9-9--7-9-9-9--9-9--7-555-0000-0-0-22222222--------------------------------|(x2)

And we came for the love
But we left with the money
I hate, I hate
I hate the way you love me
e|---------------------------------------------------------------------------|
B|---------------------------------------------------------------------------|
G|---------------------------------------------------------------------------|
D|-1111-9-111111-1111-9-777-2222-2-2-44444444--------------------------------|
A|-1111-9-111111-1111-9-777-2222-0-0-44444444--------------------------------|
E|-9-9--7-9-9-9--9-9--7-555-0000-0-0-22222222--------------------------------|(x2)

We are the young heart attacks, full of I'm never ever gonna come back
And there's no loyalties among thieves
Except for you and me
e|---------------------------------------------------------------------------|
B|---------------------------------------------------------------------------|
G|---------------------------------------------------------------------------|
D|-77777777-22222222-4444444444444444----------------------------------------|
A|-77777777-22222222-4444444444444444----------------------------------------|
E|-55555555-00000000-2222222222222222----------------------------------------|(x2) 

Break break, breaking your own damn heart
Break break, breaking your own damn heart
e|---------------------------------------------------------------------------|
B|---------------------------------------------------------------------------|
G|---------------------------------------------------------------------------|
D|-1111-9-111111-1111-9-777-2222-2-2-44444444--------------------------------|
A|-1111-9-111111-1111-9-777-2222-0-0-44444444--------------------------------|
E|-9-9--7-9-9-9--9-9--7-555-0000-0-0-22222222--------------------------------|

A tattoo of an old stiletto on your left arm
I'll write a song about it on the guitar
They'll take our picture when we're running from the law
Breaking your own heart, breaking your
e|---------------------------------------------------------------------------|
B|---------------------------------------------------------------------------|
G|---------------------------------------------------------------------------|
D|-1111-9-111111-1111-9-777-2222-2-2-44444444--------------------------------|
A|-1111-9-111111-1111-9-777-2222-0-0-44444444--------------------------------|
E|-9-9--7-9-9-9--9-9--7-555-0000-0-0-22222222--------------------------------|(x2)

And we came for the love
But we left with the money
I hate, I hate
I hate the way you love me
e|---------------------------------------------------------------------------|
B|---------------------------------------------------------------------------|
G|---------------------------------------------------------------------------|
D|-1111-9-111111-1111-9-777-2222-2-2-44444444--------------------------------|
A|-1111-9-111111-1111-9-777-2222-0-0-44444444--------------------------------|
E|-9-9--7-9-9-9--9-9--7-555-0000-0-0-22222222--------------------------------|(x2)

We are the young heart attacks, full of I'm never ever gonna come back
And there's no loyalties among thieves
Except for you and me
e|---------------------------------------------------------------------------|
B|---------------------------------------------------------------------------|
G|---------------------------------------------------------------------------|
D|-77777777-22222222-4444444444444444----------------------------------------|
A|-77777777-22222222-4444444444444444----------------------------------------|
E|-55555555-00000000-2222222222222222----------------------------------------|(x2) 

The story started as a monolog
But it got better when you came along
Just us, just us, just
Bonnie and Clyde have come alive again
But we all know just how the story ends
We know, we know, we know 
e|--------------------------------------------------------------------------------------------|
B|--------------------------------------------------------------------------------------------|
G|--------------------------------------------------------------------------------------------|
D|--------------------------------------------------------------------------------------------|
A|-111111-111111-111111-111111-777-777-777-777-141414-141414-141414-141414-666-666-444-444----|
E|-9-9-9--9-9-9--9-9-9--9-9-9--555-555-555-555-121212-121212-121212-121212-444-444-222-222----|(x2)
   P.M.

And we came for the love
But we left with the money
I hate, I hate
I hate the way you love me
e|---------------------------------------------------------------------------|
B|---------------------------------------------------------------------------|
G|---------------------------------------------------------------------------|
D|-1111-9-111111-1111-9-777-2222-2-2-44444444--------------------------------|
A|-1111-9-111111-1111-9-777-2222-0-0-44444444--------------------------------|
E|-9-9--7-9-9-9--9-9--7-555-0000-0-0-22222222--------------------------------|(x2)

We are the young heart attacks, full of I'm never ever gonna come back
And there's no loyalties among thieves
Except for you and me
e|---------------------------------------------------------------------------|
B|---------------------------------------------------------------------------|
G|---------------------------------------------------------------------------|
D|-77777777-22222222-4444444444444444----------------------------------------|
A|-77777777-22222222-4444444444444444----------------------------------------|
E|-55555555-00000000-2222222222222222----------------------------------------|(x4) 

Break break, breaking your own damn heart
Break break, breaking your own damn heart
e|---------------------------------------------------------------------------|
B|---------------------------------------------------------------------------|
G|---------------------------------------------------------------------------|
D|-1111-9-111111-1111-9-777-2222-2-2-4---------------------------------------|
A|-1111-9-111111-1111-9-777-2222-0-0-----------------------------------------|
E|-9-9--7-9-9-9--9-9--7-555-0000-0-0-----------------------------------------|
Добавлено: 14.03.2016
Другие материалы по этой песне:
  • Аккорды и текст

Страница создана 21.02.2016
http://primanota.ru/new-politics/loyalties-among-theives-chords.htm
Привет, Гость.
Предлагаем пройти революционный курс по гитаре.
Подарок от PrimaNota.Ru, забирай!