PrimaNota.ru - самый крупный в мире бесплатный архив песенных текстов, аккордов, табулатур и нот


New Orleans Swim Team - To Be Something - таба, видео

Регистрация Запомнить меня
Войти через:  Facebook Google Twitter Vk Yandex Mail.ru

New Orleans Swim Team - To Be Something - таба, видео

Печатать
Просмотров: 92
-------------------------------------------------------------------------------
                             TO BE SOMETHING - NEW ORLEANS SWIM TEAM
-------------------------------------------------------------------------------
Tabbed by: Jacob Ulickij
Email: NewOrleansSwimTeam@gmail.com

Tuning: Standard

Capo on 3rd

The guitar it was written for and recorded with had no D-string, so filling in the 
chords might be something you can choose to improvise.


Also, this is a tab is slightly different than what appears on the To be Something, to 
be Anything album. It is, nonetheless, correct. Because I goddamn say so.


VERSE

e|----------------------------6----------------------------------|
B|---6-------6-------6--------6----3-------3-------3-------3-----|
G|-------3-------3-------3----3--------3-------3-------3-------3-|
D|--------------------------------------- -----------------------|
A|-6---6---8---8---6---6---8-----6---6---8---8---6---6---8---8---|
E|---------------------------------------------------------------|

PRE-CHORUS CHORDS

e|--------|
B|--6--6--|
G|--3--3--|
D|--------|
A|--6--8--|
E|--------|

CHORUS CHORDS

e|-----6--|
B|--6--3--|
G|--3--3--|
D|--------|
A|--6--5--|
E|--------|

You can put in flourishes by stretching for the eight or ten on the high e string during 
the chorus.

For a video, please consult: http://www.youtube.com/watch?v=p2Q8uFpdKdo&feature=related


************************************

| /   slide up
| \   slide down
| h   hammer-on
| p   pull-off
| ~   vibrato
| +   harmonic
| x   Mute note
| b   Bend
| pb  Pre-bend
| br  Bend release
| pbr Pre-bend release
| brb Bend release bend

************************************
Добавлено: 09.08.2013
Вам также может быть интересно:
Другие материалы по этой песне:
  • Аккорды и текст

Страница создана 09.08.2013
http://primanota.ru/new-orleans-swim-team/to-be-something-chords.htm
Привет, Гость.
Предлагаем пройти революционный курс по гитаре.
Подарок от PrimaNota.Ru, забирай!