PrimaNota.ru - самый крупный в мире бесплатный архив песенных текстов, аккордов, табулатур и нот


New Order - The Perfect Kiss - текст песни, бас-таба, видео

Регистрация Запомнить меня
Войти через:  Facebook Google Twitter Vk Yandex Mail.ru

New Order - The Perfect Kiss - текст песни, бас-таба, видео

Печатать
Просмотров: 141
Авторы: Bernard Sumner, Peter Hook, Stephen Morris, Gillian Gilbert

The Perfect Kiss - Long Version (Bass Tab)
by New Order from the album Substance
tabbed by Jeff Johnson from
Love Vigilantes - The Definitive Tribute to New Order
jeffrjohnson@yahoo.com

Intro: 0:29

|--------5---------------5-------|7-------5---------------5-------|
|7---------------7-----------7---|----------------7-----------7---|
|--------------------------------|--------------------------------|
|--------------------------------|--------------------------------|

|--------5---------------5-------|7-------5---------------5-------|
|7---------------7-----------7---|----------------7-----------7---|
|--------------------------------|--------------------------------|
|--------------------------------|--------------------------------|

|--------5---------------5-------|7-------5---------------5-------|
|--7-------------7-----------7---|----------------7-----------7---|
|--------------------------------|--------------------------------|
|--------------------------------|--------------------------------|

|--------5---------------5-------|7-------5---------------5-------|
|7---------------7-----------7---|----------------7-----------7---|
|--------------------------------|--------------------------------|
|--------------------------------|--------------------------------|

|--------------------------------|--------------------------------|
|--------------------------------|7\------------------------------|
|--------------------------------|--------------------------------|
|--------------------------------|--------------------------------|

Main Riff: 1:17, 2:30

|21------------21------21--21--21|21--19--17------19--------------|
|--------------------------------|--------------------------17/---|
|--------------------------------|--------------------------------|
|--------------------------------|--------------------------------|


|21------21------21----21--21--21|21--19--17------19--19----------|
|--------------------------------|------------------------17/-----|
|--------------------------------|--------------------------------|
|--------------------------------|--------------------------------|

|21------------21------21--21--21|21--19--17------19--------------|
|--------------------------------|--------------------------17/---|
|--------------------------------|--------------------------------|
|--------------------------------|--------------------------------|


|21------21------21----21--21--21|21--19--17------19--19----------|
|--------------------------------|------------------------17/-----|
|--------------------------------|--------------------------------|
|--------------------------------|--------------------------------|

Verse: 1:32
|--------------------------------|--------------------------------|
|12--------------------------12/-|10--------------------------10/-|
|--------------------------------|--------------------------------|
|--------------------------------|--------------------------------|

|--------------------------------|--------------------------------|
|7---------------------------7/--|5---------------------------5/--|
|--------------------------------|--------------------------------|
|--------------------------------|--------------------------------|

|--------------------------------|--------------------------------|
|12--------------------------12/-|10--------------------------10/-|
|--------------------------------|--------------------------------|
|--------------------------------|--------------------------------|

|--------------------------------|--------------------------------|
|7---------------------------7/--|5---------------------------5/--|
|--------------------------------|--------------------------------|
|--------------------------------|--------------------------------|

|--------------------------------|--------------------------------|
|12--------------------------12/-|10--------------------------10/-|
|--------------------------------|--------------------------------|
|--------------------------------|--------------------------------|

|--------------------------------|--------------------------------|
|7---------------------------7/--|5---------------------------5/--|
|--------------------------------|--------------------------------|
|--------------------------------|--------------------------------|

|--------------------------------|--------------------------------|
|12--------------------------12/-|10--------------------------10/-|
|--------------------------------|--------------------------------|
|--------------------------------|--------------------------------|

|--------------------------------|--------------------------------|
|7---------------------------7/--|5-------------------------7/10--|
|--------------------------------|--------------------------------|
|--------------------------------|--------------------------------|

Chorus: 2:01, 3:15 (Going in to this, make sure you grab that slide
from the last bar of the verse.  Peter Hook would be proud!)
|9-------10--12--14-14-14-12-10--|12-12-10--9---------9-----------|
|--------------------------------|--------------10--------12--10--|
|--------------------------------|--------------------------------|
|--------------------------------|--------------------------------|

|--------------------------------|
|5-------------------------7/--10|
|--------------------------------|
|--------------------------------|

|9-------10--12--14-14-14-12-10--|12-12-10--9---------9-----------|
|--------------------------------|--------------10--------12--10--|
|--------------------------------|--------------------------------|
|--------------------------------|--------------------------------|

|--------------------------------|
|5---------------------------5/--|
|--------------------------------|
|--------------------------------|

Instrumental: 2:16
|---------------------------14\--|---------------------------12\--|
|12------------------------------|10------------------------------|
|--------------------------------|--------------------------------|
|--------------------------------|--------------------------------|

|--------------------------------|--------------------------------|
|7--------------------------9\---|5---------------------------5/--|
|--------------------------------|--------------------------------|
|--------------------------------|--------------------------------|

|---------------------------14\--|---------------------------12\--|
|12------------------------------|10------------------------------|
|--------------------------------|--------------------------------|
|--------------------------------|--------------------------------|

|---------------------------9\---|--------------------------------|
|7-------------------------------|5-------------------------7/10--|
|--------------------------------|--------------------------------|
|--------------------------------|--------------------------------|

Chorus Variation & Bridge: 2:46, 3:30
|---------------------------14\--|---------------------------12\--|
|12------------------------------|10------------------------------|
|--------------------------------|--------------------------------|
|--------------------------------|--------------------------------|

|--------------------------------|--------------------------------|
|7--------------------------9\---|5---------------------------5/--|
|--------------------------------|--------------------------------|
|--------------------------------|--------------------------------|

|---------------------------14\--|---------------------------12\--|
|12------------------------------|10------------------------------|
|--------------------------------|--------------------------------|
|--------------------------------|--------------------------------|

|--------------------------------|--------------------------------|
|7--------------------------9\---|5---------------------------5/--|
|--------------------------------|--------------------------------|
|--------------------------------|--------------------------------|

|---------------------------14\--|---------------------------12\--|
|12------------------------------|10------------------------------|
|--------------------------------|--------------------------------|
|--------------------------------|--------------------------------|

|--------------------------------|--------------------------------|
|7--------------------------9\---|5---------------------------5/--|
|--------------------------------|--------------------------------|
|--------------------------------|--------------------------------|

|---------------------------14\--|---------------------------12\--|
|12------------------------------|10------------------------------|
|--------------------------------|--------------------------------|
|--------------------------------|--------------------------------|

|---------------------------9\---|--------------------------------|
|7-------------------------------|5-------------------------7/10--|
|--------------------------------|--------------------------------|
|--------------------------------|--------------------------------|

Breakout the drums sticks and start beating the drum pads.

Transition 4:44, 4:58, 5:13
|--------------------------------|
|-12-----------------------------|
|--------------------------------|
|--------------------------------|

After the cowbells at: 6:12
(These next two bars 4x)
|--------------------------------|--------------------------------|
|5-5-5---7---7---5-5-5-7-7---7---|5-5-5---7---7---5-5-5-7-7---7---|
|--------------------------------|--------------------------------|
|--------------------------------|--------------------------------|

Then go in to this part at: 6:27 & 7:11
|7---9-9-9---7---9---9---9---7-7-|7---9-9-9---7---9---9---9---7-7-|
|--------------------------------|--------------------------------|
|--------------------------------|--------------------------------|
|--------------------------------|--------------------------------|


|7---9-9-9---7---9---9---9-------|121212--101010--9-9-9---7-7-7---|
|--------------------------------|--------------------------------|
|--------------------------------|--------------------------------|
|--------------------------------|--------------------------------|

|7---9-9-9---7---9---9---9---7-7-|7---9-9-9---7---9---9---9---7-7-|
|--------------------------------|--------------------------------|
|--------------------------------|--------------------------------|
|--------------------------------|--------------------------------|


|7---9-9-9---7---9---9---9-------|121212--101010--9-9-9---7-7-7---|
|--------------------------------|--------------------------------|
|--------------------------------|--------------------------------|
|--------------------------------|--------------------------------|

|121212--101010--9-9-9---7-7-7---|121212--101010--9-9-9---7-7-7---|
|--------------------------------|--------------------------------|
|--------------------------------|--------------------------------|
|--------------------------------|--------------------------------|

|121212--101010--9-9-9---7-7-7---|7---9-9-9---7---9---9---9/------|
|--------------------------------|--------------------------------|
|--------------------------------|--------------------------------|
|--------------------------------|--------------------------------|

|/21-21-21-21-21-21----21--21--21|21--19--17------19--------------|
|--------------------------------|--------------------------17/---|
|--------------------------------|--------------------------------|
|--------------------------------|--------------------------------|

|21------21------21----21--21--21|21--19--17------19--19----------|
|--------------------------------|------------------------17/-----|
|--------------------------------|--------------------------------|
|--------------------------------|--------------------------------|

|21------------21------21--21--21|21--19--17------19--------------|
|--------------------------------|--------------------------17/---|
|--------------------------------|--------------------------------|
|--------------------------------|--------------------------------|

|21------21------21----21--------|-21--21--19--19--17--17--16--16-|
|--------------------------------|--------------------------------|
|--------------------------------|--------------------------------|
|--------------------------------|--------------------------------|

|--------------------------------|--------------------------------|
|17--17--15--15--14--14--12--12--|10--10--7---7---5---5---7---7---|
|--------------------------------|--------------------------------|
|--------------------------------|--------------------------------|

|--------------------------------|--------------------------------|
|5-5-5---7---7---5-5-5-7-7---7---|5-5-5---7---7---5-5-5-7-7---7---|
|--------------------------------|--------------------------------|
|--------------------------------|--------------------------------|

Ending: 2nd time around replace the last 3 bars above at 7:50 with:

|--------------------------------|--------------------------------|
|--------------------------------|10--10--9---9---7---7---5---5---|
|--------------------------------|--------------------------------|
|--------------------------------|--------------------------------|

|--------------------------------|--------------------------------|
|3---3---2---2-------------------|--------------------------------|
|----------------5---5---3---3---|2---2---------------------------|
|--------------------------------|--------5---5---3---3---1---1---|

|--------------------------------|
|--------------------------------|
|--------------------------------|
|0-------------------------------|

Congratulations!
Добавлено: 04.05.2012
Другие материалы по этой песне:

Страница создана 04.05.2012
http://primanota.ru/new-order/the-perfect-kiss-chords.htm
Привет, Гость.
Предлагаем пройти революционный курс по гитаре.
Подарок от PrimaNota.Ru, забирай!