PrimaNota.ru - самый крупный в мире бесплатный архив песенных текстов, аккордов, табулатур и нот


New Order - Sooner Than You Think - текст песни, бас-таба, видео

Регистрация Запомнить меня
Войти через:  Facebook Google Twitter Vk Yandex Mail.ru

New Order - Sooner Than You Think - текст песни, бас-таба, видео

Печатать
Просмотров: 90
Авторы: Bernard Sumner, Peter Hook, Stephen Morris, Gillian Gilbert

-------------------------------------------------------------------------------
                             Sooner Than You Think - New Order
-------------------------------------------------------------------------------
Tabbed by: Selene

Classic Hooky bassline, in that it's very melodic and makes absolutely no sense but sounds really cool.

Tuning: EADG (feel free to leave E and A at whatever you'd like, though)

Intro

G|-2--2-5--5-7--7-4--4-2--2-5--5-4--4----454---------------------------------|
D|------------------------------------5-5------------------------------------|
A|---------------------------------------------------------------------------|
E|---------------------------------------------------------------------------|

Intro part 2

G|-222-2-222-555-5-555-777-7-777-4444545----------------------------------------|
D|--------------------------------------7---------------------------------------|
A|------------------------------------------------------------------------------|
E|------------------------------------------------------------------------------|

Intro variation played at the end

G|-222-2-222-555-5-555-444-4-444-----454-------------------------------------|
D|-------------------------------5555----------------------------------------|
A|---------------------------------------------------------------------------|
E|---------------------------------------------------------------------------|

Immediately post-intro

G|-7-9-10-9----9-10-9-7-5757----7-9-10-9----9-10-9-7-5757--------------------|
D|-------------------------------------------------------7-------------------|
A|---------------------------------------------------------------------------|
E|---------------------------------------------------------------------------|

Main riff

G|-7-9-10-9----12-10-9-10-9-----12-10-9-10-9-----10-9------------------------|
D|--------------------------10---------------10-------10---------------------|
A|---------------------------------------------------------------------------|
E|---------------------------------------------------------------------------|

Chorus riff

G|----------7-9-10-9----10-9-------------7-9-10-9----------------------------|
D|-\7--/10-----------10------10-\7--/10-----------10-\7----------------------|
A|---------------------------------------------------------------------------|
E|---------------------------------------------------------------------------|

Outro riff #1 (it's a tad chaotic due to Sumner's distorted guitar being really loud, so 
use this as a guideline)

G|-222-2-2-2555-5-5-5777-7-7-74445-4-----------------------------------------|
D|---------------------------------------------------------------------------|
A|---------------------------------------------------------------------------|
E|---------------------------------------------------------------------------|

Outro riff #2

G|-999-99-999912-10-9-10-9---12-10-9-10-9----10-9----------------------------|
D|-------------------------10-------------10------10-------------------------|
A|---------------------------------------------------------------------------|
E|---------------------------------------------------------------------------|


There's a few variations Hooky plays here and there, which mostly just involve triplets 
and slides - they aren't really worth noting down. These are the basic riffs.


| /  slide up
| \  slide down
| h  hammer-on
| p  pull-off
| ~  vibrato
| +  harmonic
| x  Mute note
===============================================================================
Добавлено: 18.11.2015
Другие материалы по этой песне:
  • Аккорды и текст

Страница создана 30.07.2012
http://primanota.ru/new-order/sooner-than-you-think-chords.htm
Привет, Гость.
Предлагаем пройти революционный курс по гитаре.
Подарок от PrimaNota.Ru, забирай!