PrimaNota.ru - самый крупный в мире бесплатный архив песенных текстов, аккордов, табулатур и нот


New Order - Lonesome Tonight - текст песни, бас-таба, видео

Регистрация Запомнить меня
Войти через:  Facebook Google Twitter Vk Yandex Mail.ru

New Order - Lonesome Tonight - текст песни, бас-таба, видео

Печатать
Просмотров: 178
Авторы музыки: New Order

NEW ORDER - LONESOME TONIGHT
ALBUM: SUBSTANCE (1987)
BASSIST: PETER HOOK

INTRO  (get high the high freq)
(play with plectrum)

E ---------5-5---5-5-5-|  X2
A --7*--7--------------|
D ---------------------|
G ---------------------|

VERSE

E ---------------5-5---5-5-5-5---|
A ---7--7-7-7-7------------------|  untill the end
D -------------------------------|
G -------------------------------|

TABBED BY JAH WOBBLE IS GOD||
Добавлено: 24.02.2012
Другие материалы по этой песне:
  • Аккорды и текст

Страница создана 24.02.2012
http://primanota.ru/new-order/lonesome-tonight-chords.htm
Привет, Гость.
Предлагаем пройти революционный курс по гитаре.
Подарок от PrimaNota.Ru, забирай!