PrimaNota.ru - самый крупный в мире бесплатный архив песенных текстов, аккордов, табулатур и нот


New Order - Confusion - текст песни, бас-таба, видео

Регистрация Запомнить меня
Войти через:  Facebook Google Twitter Vk Yandex Mail.ru

New Order - Confusion - текст песни, бас-таба, видео

Печатать
Просмотров: 339
Авторы музыки: Arthur Baker, Bernard Sumner, Peter Hook, Stephen Morris, Gillian Gilbert

CONFUSION

main riff
|----------------------------------------------|
|----------------------------------------------|
|-----------------------4-----2----------------|
|-4-4--4--4---4----4----------------4---4--4---|

1:34
|-----------------6-------------------------------------|
|-------------------------------------------------------|
|-------------------------------------------------------|
|---4--------------------------4---4--------------------|

3:28
|-----------------6--------------------------------------------|
|--------------------------------------------------------------|
|----------------------------------------------------2---------|
|---4-------------------------4---4--------4---4-4------4------|

|----------------6-----------------------------6--------8------|
|--------------------------------------------------------------|
|------------------------------------------4-------6-----------|
|---4------------------------4---4-----------------------------|

                                                              x2
|-----------------6--------------------------------------------|
|--------------------------------------------------------------|
|----------------------------------------------------2---------|
|---4-------------------------4---4--------4---4-4------4------|
Добавлено: 06.09.2013
Другие материалы по этой песне:
  • Аккорды и текст

Страница создана 07.04.2012
http://primanota.ru/new-order/confusion-chords.htm
Привет, Гость.
Предлагаем пройти революционный курс по гитаре.
Подарок от PrimaNota.Ru, забирай!