PrimaNota.ru - самый крупный в мире бесплатный архив песенных текстов, аккордов, табулатур и нот


New Musik - Warp - текст песни, бас-таба, видео

Регистрация Запомнить меня
Войти через:  Facebook Google Twitter Vk Yandex Mail.ru

New Musik - Warp - текст песни, бас-таба, видео

Печатать
Просмотров: 84
Tabbed by: bassm99
E-mail: alanmatthews1966@yahoo.co.uk

Tuning: E, A, D, G

"Warp" from the album "Warp" (1982)
Written by T.Mansfield

Bass Starts: 0:10

Intro: 
 
G|--------------------------------------------------------------------------|
D|--------------------------------------------------------------------------|
A|--------------------5-7-8-7--5-7-8-7-(x2)---------------------------------|
E|--3-3-3-3--5-5-5-5-------------------------3-3-3-3--5-5-5-5-(x1)----------|

Verse: (Play 4 Times)

G|--------------------------------------------------------------------------|
D|--------------------------------------------------------------------------|
A|--5-5-5-5-----------------------------------------------------------------|
E|-----------1-1-1-1-1-0-1-0------------------------------------------------|

Chorus:

G|--------------------------------------------------------------------------|
D|--------------------------------------------------------------------------|
A|--------------------5-7-8-7--5-7-8-7-(x2)---------------------------------|
E|--3-3-3-3--5-5-5-5-------------------------3-3-3-3--5-5-5-5-(x1)----------|

Repeat Verse:

Repeat Chorus:

Bridge:

G|--------------------------------------------------------------------------|
D|--------------------------------------------------------------------------|
A|--3----1----1-3--1----1-3--1----1-3---------------------------------------|
E|---------1---------1---------1--------------------------------------------|

Repeat Verse:

Chorus:

G|--------------------------------------------------------------------------|
D|--------------------------------------------------------------------------|
A|--------------------5-7-8-7--5-7-8-7-(x2)---------------------------------|
E|--3-3-3-3--5-5-5-5-------------------------3-3-3-3--5-5-5-5-(x5)----------|

G|--------------------------------------------------------------------------|
D|--------------------------------------------------------------------------|
A|--5-7-8-7-(x8)------------------------------------------------------------|
E|--------------------------------------------------------------------------|

Bass Stops: (3:22 - 3:37)

Ending: (3:37 - 3:55)

G|--------------------------------------------------------------------------|
D|--------------------------------------------------------------------------|
A|--5-7-8-7-(x9)--5-7-8-(x1)------------------------------------------------|
E|--------------------------------------------------------------------------|

From 3:55 - 4:19 when the song ends, the bass is cut up and warped from the
ending riff.
Добавлено: 17.09.2015
Другие материалы по этой песне:
  • Аккорды и текст

Страница создана 25.04.2012
http://primanota.ru/new-musik/warp-chords.htm
Привет, Гость.
Предлагаем пройти революционный курс по гитаре.
Подарок от PrimaNota.Ru, забирай!