PrimaNota.ru - самый крупный в мире бесплатный архив песенных текстов, аккордов, табулатур и нот


New Musik - Back To Room One - бас-таба, видео

Регистрация Запомнить меня
Войти через:  Facebook Google Twitter Vk Yandex Mail.ru

New Musik - Back To Room One - бас-таба, видео

Печатать
Просмотров: 67
Tabbed by: bassm99
E-mail: alanmatthews1966@yahoo.co.uk

Tuning: E, A, D, G

"Back To Room One" from the album "Anywhere" (1981)
Written by Tony Mansfield

Bass Starts: 0:01

Intro: (Play 4 Times) 
 
G|--------------------------------------------------------------------------|
D|--7----5------------------------------------------------------------------|
A|--------------------------------------------------------------------------|
E|--------------------------------------------------------------------------|

Verse: (Play Twice)

G|--------------------------------------------------------------------------|
D|--------------------------------------------------------------------------|
A|--------------------------------------------------------------------------|
E|--5-5-(x4)--1-1-(x1)--3-3-(x1)--5-5-(x2)----------------------------------|

Chorus:

G|--------------------------------------------------------------------------|
D|--------------------------------------------------------------------------|
A|--------------------------------------------------------------------------|
E|--1-1-(x1)--3-3-(x1)--5-5-(x2)----1-1-(x1)--3-3-(x1)--5-5-(x2)------------|

G|--------------------------------------------------------------------------|
D|--------------------------------------------------------------------------|
A|--------------------------------------------------------------------------|
E|--1-1-(x1)--3-3-(x1)--5-5-(x2)----5-5-(x1)--5-3-(x1)----------------------|

Repeat Verse:

Chorus:

G|--------------------------------------------------------------------------|
D|--------------------------------------------------------------------------|
A|--------------------------------------------------------------------------|
E|--1-1-(x1)--3-3-(x1)--5-5-(x2)----1-1-(x1)--3-3-(x1)--5-5-(x2)------------|

G|--------------------------------------------------------------------------|
D|--------------------------------------------------------------------------|
A|--------------------------------------------------------------------------|
E|--1-1-(x1)--3-3-(x1)--5-5-(x2)----5-5-(x2)--------------------------------|

Bridge: (Play 4 Times)

G|--------------------------------------------------------------------------|
D|--7----5------------------------------------------------------------------|
A|--------------------------------------------------------------------------|
E|--------------------------------------------------------------------------|

Repeat Verse:

Chorus:

G|--------------------------------------------------------------------------|
D|--------------------------------------------------------------------------|
A|--------------------------------------------------------------------------|
E|--1-1-(x1)--3-3-(x1)--5-5-(x2)----1-1-(x1)--3-3-(x1)--5-5-(x2)------------|

G|--------------------------------------------------------------------------|
D|--------------------------------------------------------------------------|
A|--------------------------------------------------------------------------|
E|--1-1-(x1)--3-3-(x1)--5-5-(x2)----1-1-(x1)--3-3-(x1)--5-5-(x2)----5-5-(x2)|

Repeat Bridge:

Ending: (Fades Out)

G|--------------------------------------------------------------------------|
D|--------------------------------------------------------------------------|
A|--------------------------------------------------------------------------|
E|--5-5---1-1-(x18)--5-5-(x1)-----------------------------------------------|
Добавлено: 10.12.2015
Вам также может быть интересно:
Другие материалы по этой песне:
  • Аккорды и текст

Страница создана 10.12.2015
http://primanota.ru/new-musik/back-to-room-one-chords.htm
Привет, Гость.
Предлагаем пройти революционный курс по гитаре.
Подарок от PrimaNota.Ru, забирай!