PrimaNota.ru - самый крупный в мире бесплатный архив песенных текстов, аккордов, табулатур и нот


New Musik - A Train on Twisted Tracks - текст песни, бас-таба, видео

Регистрация Запомнить меня
Войти через:  Facebook Google Twitter Vk Yandex Mail.ru

New Musik - A Train on Twisted Tracks - текст песни, бас-таба, видео

Печатать
Просмотров: 107
Уроки эстрадного вокала в Санкт-Петербурге
Tabbed by: bassm99
E-mail: alanmatthews1966@yahoo.co.uk

Tuning: E, A, D, G

"A Train On Twisted Tracks" from the album "Warp" (1982)
Written by T.Mansfield

Bass Starts: 0:18

Verse: 
 
G|--------------------------------------------------------------------------|
D|--------------------------------------------------------------------------|
A|----------------------------------4-4-4--4-4-(x2)-6-6-6--6-6-(x2)---------|
E|--6-6-6--6-6-(x2)-4-4-4--4-4-(x2)-----------------------------------------|

G|--------------------------------------------------------------------------|
D|--------------------------------------------------------------------------|
A|----------------------------------4-4-4--4-4-(x2)-------------------------|
E|--1-1-1--1-1-(x2)-2-2-2--2-2-(x2)-----------------4-4-4--4-4-(x2)---------|

Chorus: (Play 4 Times)

G|--------------------------------------------------------------------------|
D|--------------------------------------------------------------------------|
A|--------------------------------------------------------------------------|
E|--6-6-6--6-6---2-2-2--2-2-------------------------------------------------|

Repeat Verse:

Repeat Chorus: (Play 8 Times)

Bridge: (Play 4 Times)

G|--------------------------------------------------------------------------|
D|--------------------------------------------------------------------------|
A|--------------------------------------------------------------------------|
E|--6-6-6--6-6---2-2-2--2-2-------------------------------------------------|

Bass Stops: (2:35 - 3:10)

Ending: (Play 4 Times)

G|--------------------------------------------------------------------------|
D|--------------------------------------------------------------------------|
A|--------------------------------------------------------------------------|
E|--6-6-6--6-6---2-2-2--2-2-------------------------------------------------|
Добавлено: 17.09.2015
Другие материалы по этой песне:
  • Аккорды и текст

Страница создана 23.05.2012
http://primanota.ru/new-musik/a-train-on-twisted-tracks-chords.htm
Привет, Гость.
Предлагаем пройти революционный курс по гитаре.
Подарок от PrimaNota.Ru, забирай!