PrimaNota.ru - самый крупный в мире бесплатный архив песенных текстов, аккордов, табулатур и нот


New Medicine - Rich Kids - таба, видео

Регистрация Запомнить меня
Войти через:  Facebook Google Twitter Vk Yandex Mail.ru

New Medicine - Rich Kids - таба, видео

Печатать
Просмотров: 193
-------------------------------------------------------------------------------
                             Rich Kids - New Medicine
-------------------------------------------------------------------------------
Tabbed by:blueledaero13
Email:bbuc13@yahoo.com

Tuning:drop d

e|---------------------------------------------------------------------------|
B|----------------------3-------3-------------------------3-------3----------|
G|-----2-------2------3---3---3---3------2-------2------3---3---3---3--------|
D|---3---3---3---3--5-------5----------3---3---3---3--5-------5--------------|
A|-5-------5-------------------------5-------5-------------------------------|
D|---------------------------------------------------------------------------|

e|---------------------------------------------------------------------------|
B|----------------------3-------3-------------------------3-------3----------|
G|-----2-------2------3---3-------3------2-------2------3---3-------3--------|
D|---3---3---3---3--5-------555--------3---3---3---3--5-------555------------|
A|-5-------5-------------------------5-------5-------------------------------|
D|---------------------------------------------------------------------------|  
   x x x x x x x x  x x x x xxx x x  x x x x x x x x  xxx x x x x x x

e|---------------------------------------------------------------------------|
B|----------------------3-------3--------------------------------------------|
G|-----2-------2------3---3-------3------2-------2---------------------------|
D|---3---3---3---3--5-------555--------3---3---3---3-pick slide//////--------|
A|-5-------5-------------------------5-------5-------pick slide//////--------|
D|---------------------------------------------------------------------------|  
   x x x x x x x x  x x x x xxx x x  x x x x x x x x

e|---------------------------------------------------------------------------|
B|----------------------3-------3-------------------------3-------3----------|
G|-----2-------2------3---3---3---3------2-------2------3---3---3---3--------|
D|---3---3---3---3--5-------5----------3---3---3---3--5-------5--------------|
A|-5-------5-------------------------5-------5-------------------------------|
D|---------------------------------------------------------------------------|

e|---------------------------------------------------------------------------|
B|----------------------3-------3--------------------------------------------|
G|-----2-------2------3---3-------3------2-------2----1212-1111-1010-9~------|
D|---3---3---3---3--5-------555--------3---3---3---3--1212-1111-1010-9~------|
A|-5-------5-------------------------5-------5--------1010- 9 9- 8 8-7~------|
D|---------------------------------------------------------------------------|  
   x x x x x x x x  x x x x xxx x x  x x x x x x x x

e|---------------------------------------------------------------------------|
B|---------------------------------------------------------------------------|
G|------------5~-------------5~--7~5~7~-----------7~5~7~---------------------|
D|-00-00-55-775~--00-00-55-775~--7~5~7~-5555-7777-7~5~7~-5555-7777-----------|
A|-00-00-55-773~--00-00-55-773~--5~3~5~-5555-7777-5~3~7~-5555-7777-----------|
D|-00-00-55-77----00-00-55-77-----------5555-7777--------5555-7777-----------|

e|---------------------------------------------------------------------------|
B|----------------------3-------3-------------------------3------------------|
G|-----2-------2------3---3---3---3------2-------2------3---3-3/5------------|
D|---3---3---3---3--5-------5----------3---3---3---3--5----------------------|
A|-5-------5-------------------------5-------5-------------------------------|
D|---------------------------------------------------------------------------|

e|---------------------------------------------------------------------------|
B|----------------------3-------3-------------------------3------------------|
G|-----2-------2------3---3-------3------2-------2------3---3----------------|
D|---3---3---3---3--5-------555--------3---3---3---3--5-------543------------|
A|-5-------5-------------------------5-------5-------------------------------|
D|---------------------------------------------------------------------------|  
   x x x x x x x x  x x x x xxx x x  x x x x x x x x  xxx x x 

e|---------------------------------------------------------------------------|
B|----------------------3---------3------------------------------------------|
G|-----2-------2------3---3-----3---3------2-------2---13-12-11--------------|
D|---3---3---3---3--5-------555----------3---3---3---3-13-12-11--------------|
A|-5-------5---------------------------5-------5-------11-10- 9--------------|
D|---------------------------------------------------------------------------|  
   x x x x x x x x  x x x x xxx x x x  x x x x x x x x

e|---------------------------------------------------------------------------|
B|---------------------------------------------------------------------------|
G|------------5~-------------5~--7~5~7~-----------7~5~7~---------------------|
D|-00-00-55-775~--00-00-55-775~--7~5~7~-5555-7777-7~5~7~-5555-7777-----------|
A|-00-00-55-773~--00-00-55-773~--5~3~5~-5555-7777-5~3~7~-5555-7777-----------|
D|-00-00-55-77----00-00-55-77-----------5555-7777--------5555-7777-----------|

e|---------------------------------------------------------------------------|
B|---------------------------------------------------------------------------|
G|-----2~~---2---2------2~~---2---2------2~~---2---2------2~~---2---2--------|
D|---3~~~~--3---3-----3~~~~--3---3-----3~~~~--3---3-----3~~~~--3---3---------|
A|-5~~~~~~-5---3----5~~~~~~-5---3----5~~~~~~-5---3----5~~~~~~-5---3----------|
D|---------------------------------------------------------------------------|

e|---------------------------------------------------------------------------|
B|---------------------------------------------------------------------------|
G|-----2~~---2---2-33333333-222222-------------------------------------------|
D|---3~~~~--3---3--33333333-222222-------------------------------------------|
A|-5~~~~~~-5---3---11111111-000000-3b----------------------------------------|
D|---------------------------------------------------------------------------|

e|---------------------------------------------------------------------------|
B|---------------------------------------------------------------------------|
G|------------5~-------------5~--7~5~7~-----------7~5~7~---------------------|
D|-00-00-55-775~--00-00-55-775~--7~5~7~-5555-7777-7~5~7~-5555-7777-----------|
A|-00-00-55-773~--00-00-55-773~--5~3~5~-5555-7777-5~3~7~-5555-7777-----------|
D|-00-00-55-77----00-00-55-77-----------5555-7777--------5555-7777-----------|


e|---------------------------------------------------------------------------|
B|----------------------3-------3-------------------------3-------3----------|
G|-----2-------2------3---3---3---3------2-------2------3---3---3---3--------|
D|---3---3---3---3--5-------5----------3---3---3---3--5-------5--------------|
A|-5-------5-------------------------5-------5-------------------------------|
D|---------------------------------------------------------------------------|

e|---------------------------------------------------------------------------|
B|----------------------3-------3-------------------------3------------------|
G|-----2-------2------3---3---3---3------2-------2------3---3----------------|
D|---3---3---3---3--5-------5----------3---3---3---3--5-------555-777--------|
A|-5-------5-------------------------5-------5-------------------------------|
E|---------------------------------------------------------------------------|

e|---------------------------------------------------------------------------|
B|---------------------------------------------------------------------------|
G|---------------------------------------------------------------------------|
D|-10~~~~--10~~~~--10~~~~--10~~~~--10~~~~--10--------------------------------|
A|-10~~~~--10~~~~--10~~~~--10~~~~--10~~~~--10--------------------------------|
D|-10~~~~--10~~~~--10~~~~--10~~~~--10~~~~--10--------------------------------|

QUESTIONS, COMMENT, CONCERNS COMPLIMENTS??
BBUC13@YAHOO.COM
************************************

| /   slide up
| \   slide down
| h   hammer-on
| p   pull-off
| ~   vibrato
| +   harmonic
| x   Mute note
| b   Bend
| pb  Pre-bend
| br  Bend release
| pbr Pre-bend release
| brb Bend release bend

************************************
Добавлено: 30.03.2012
Другие материалы по этой песне:
  • Аккорды и текст

Страница создана 30.03.2012
http://primanota.ru/new-medicine/rich-kids-chords.htm
Привет, Гость.
Предлагаем пройти революционный курс по гитаре.
Подарок от PrimaNota.Ru, забирай!