PrimaNota.ru - самый крупный в мире бесплатный архив песенных текстов, аккордов, табулатур и нот


New Life Church - Your Love Never Fails - таба, видео

Регистрация Запомнить меня
Войти через:  Facebook Google Twitter Vk Yandex Mail.ru

New Life Church - Your Love Never Fails - таба, видео

Печатать
Просмотров: 96
Уроки эстрадного вокала в Санкт-Петербурге
-------------------------------------------------------------------------------
                    your love never fails - new life church
-------------------------------------------------------------------------------
Tabbed by: Alvin p
.8th delay higher mix then repeats
key  A
Tuning: standard
intro hook
e|----------------------------------|
B|-------5-----5----------5---7-----|
G|2~-4\6---6-4---4-2--4\6---6-------|
D|----------------------------------|
A|----------------------------------|
E|----------------------------------|
instrumental hook/ turn
e|----------------------------------|
B|----------------------------------|
G|----------------------------------|
D|--7-4-----7-------7-6-------------|
A|5-----5\9---7-5\7-----------------|
E|----------------------------------|
arpeggio cords through chorus
e|2---------------------------------|
B|3---2-------3---------------------|
G|2---2-------2---------------------|
D|----2---2-------------------------|
A|--------2---2---------------------|
E|--------0-------------------------|
bridge
e|----------------------------------|
B|-----------9--------------9---9---|
G|7--7\11-10---9--7-7\11-10---9---9-|
D|----------------------------------|
A|----------------------------------|
E|----------------------------------|

************************************

| /   slide up
| \   slide down
| h   hammer-on
| p   pull-off
| ~   vibrato
| +   harmonic
| x   Mute note
| b   Bend
| pb  Pre-bend
| br  Bend release
| pbr Pre-bend release
| brb Bend release bend

************************************
Добавлено: 30.12.2015
Другие материалы по этой песне:
  • Аккорды и текст

Страница создана 30.12.2015
http://primanota.ru/new-life-church/your-love-never-fails-chords.htm
Привет, Гость.
Предлагаем пройти революционный курс по гитаре.
Подарок от PrimaNota.Ru, забирай!