PrimaNota.ru - самый крупный в мире бесплатный архив песенных текстов, аккордов, табулатур и нот


New Life Church - Unstopable God - таба, видео

Регистрация Запомнить меня
Войти через:  Facebook Google Twitter Vk Yandex Mail.ru

New Life Church - Unstopable God - таба, видео

Печатать
Просмотров: 62
-------------------------------------------------------------------------------
                             Unstopable God - New Life Church
-------------------------------------------------------------------------------
Tabbed by:alvin p
key of b
.8th delay 
Tuning: standard

intro/verse one
e|------------------------------------|
B|----plam mute-----------------------|
G|------------------------------------|
D|8-8-8-9--9--9--9--6-6-6-6-6-6-6-6-6-|
A|9-9-9-11-11-11-11-7-7-7-7-7-7-7-7-7-|
E|------------------------------------|


chorus
e|---------------------------------------------------------|
B|---------------------------------------------------------|
G|16-15-------16-15----------16-15-------16-15-------------|
D|------16----------16-------------16----------16----------|
A|---------18----------18-16----------18----------18-16-14-|
E|---------------------------------------------------------|


bridge palm mute first time through then back off as to build dynamics
e|----------------------------------------------------------------|
B|4-4-4-4-4-4-4-4-4-4-4-4-4-4-4-4-5-5-5-5-5-5-5-5-5-5-5-5-7-7-7-7-|
G|4-4-4-4-4-4-4-4-4-4-4-4-6-6-6-6-4-4-4-4-4-4-4-4-4-4-4-4-6-6-6-6-|
D|----------------------------------------------------------------|
A|----------------------------------------------------------------|
E|----------------------------------------------------------------|

e|--------------------------------------------------------|
B|4-4-4-4-4-4-4-4-4-4-4-4-4-4-4-4-5-5-5-5-5-5-5-5-5-5-5-5-|
G|4-4-4-4-4-4-4-4-4-4-4-4-6-6-6-6-4-4-4-4-4-4-4-4-4-4-4-4-|
D|--------------------------------------------------------|
A|--------------------------------------------------------|
E|--------------------------------------------------------|


************************************

| /   slide up
| \   slide down
| h   hammer-on
| p   pull-off
| ~   vibrato
| +   harmonic
| x   Mute note
| b   Bend
| pb  Pre-bend
| br  Bend release
| pbr Pre-bend release
| brb Bend release bend

************************************
Добавлено: 30.12.2015
Другие материалы по этой песне:
  • Аккорды и текст

Страница создана 30.12.2015
http://primanota.ru/new-life-church/unstopable-god-chords.htm
Привет, Гость.
Предлагаем пройти революционный курс по гитаре.
Подарок от PrimaNota.Ru, забирай!