PrimaNota.ru - самый крупный в мире бесплатный архив песенных текстов, аккордов, табулатур и нот


New Life Church - The Stand - таба, видео

Регистрация Запомнить меня
Войти через:  Facebook Google Twitter Vk Yandex Mail.ru

New Life Church - The Stand - таба, видео

Печатать
Просмотров: 100
-------------------------------------------------------------------------------
                            the stand- new life church
-------------------------------------------------------------------------------
Tabbed by: Alvin p
heavey .8th high mix and repeats slight modulation if ava.
key A
Tuning: standard
pre-chorus 1
e|---------------------------------------------------------------------------|
B|--7~-----9~-----10~-----9~-----7~------9~----10~------9~-------7~----------|
G|---------------------------------------------------------------------------|
D|7~---7/9~--9/11~---11\9~---9\7~--7/9~---9/11~----11\9~----9\7~-------------|
A|---------------------------------------------------------------------------|
E|---------------------------------------------------------------------------|

e|---------------------------------------------------------------------------|
B|--7~-----9~-----10~-----9~-----7~------9~----10~------9~-------7~----------|
G|---------------------------------------------------------------------------|
D|7~---7/9~--9/11~---11\9~---9\7~--7/9~---9/11~----11\9~----9\7~-------------|
A|---------------------------------------------------------------------------|
E|---------------------------------------------------------------------------|

e|---------------------------------------------------------------------------|
B|---7------9-------10-------12----14----------------------------------------|
G|---------------------------------14----------------------------------------|
D|7~---7/9~---9/11~----11/12~---12-------------------------------------------|
A|---------------------------------------------------------------------------|
E|---------------------------------------------------------------------------|
pre-chorus 2
e|---------------------------------------------------------------------------|
B|--7~-----9~-----10~-----9~-----7~------9~----10~------9~-------7~----------|
G|---------------------------------------------------------------------------|
D|7~---7/9~--9/11~---11\9~---9\7~--7/9~---9/11~----11\9~----9\7~-------------|
A|---------------------------------------------------------------------------|
E|---------------------------------------------------------------------------|

e|---------------------------------------------------------------------------|
B|--7~-----9~-----10~-----9~-----7~------9~----10~------9~-------7~----------|
G|---------------------------------------------------------------------------|
D|7~---7/9~--9/11~---11\9~---9\7~--7/9~---9/11~----11\9~----9\7~-------------|
A|---------------------------------------------------------------------------|
E|---------------------------------------------------------------------------|

e|---------------------------------------------------------------------------|
B|---7------9-------10-------12------7------9-------10-------9-----7---------|
G|---------------------------------------------------------------------------|
D|7~---7/9~---9/11~----11/12~--12\7~---7/9~---9/11~----11\9~---9\7~----------|
A|---------------------------------------------------------------------------|
E|---------------------------------------------------------------------------|

e|---------------------------------------------------------------------------|
B|----9-------10--------10-----12--------14----12----------------------------|
G|---------------------------------------------------------------------------|
D|7/9~--9/11~----11/12~----12~----12/14~----14\12----------------------------|
A|---------------------------------------------------------------------------|
E|---------------------------------------------------------------------------|
Solo repeat as needed 
e|---------------------------------------------------------------------------|
B|14----14----17----17----12----12----13---14--------------------------------|
G|---14----14----14----14----14----14---14---14------------------------------|
D|---------------------------------------------------------------------------|
A|---------------------------------------------------------------------------|
E|---------------------------------------------------------------------------|
chorus when all in BIG
e|------------------------------------------------|
B|15-15-15-15-17-17-17-17-17-17-17-17-14-14-14-14-|
G|14-14-14-14-14-14-14-14-16-16-16-16-14-14-14-14-|
D|14-14-14-14-14-14-14-14-14-14-14-14-16-16-16-16-|
A|------------REPEAT AS NEEDED--------------------|
E|------------------------------------------------|

************************************

| /   slide up
| \   slide down
| h   hammer-on
| p   pull-off
| ~   vibrato
| +   harmonic
| x   Mute note
| b   Bend
| pb  Pre-bend
| br  Bend release
| pbr Pre-bend release
| brb Bend release bend

************************************
Добавлено: 11.10.2015
Другие материалы по этой песне:
  • Аккорды и текст

Страница создана 11.10.2015
http://primanota.ru/new-life-church/stand-chords.htm
Привет, Гость.
Предлагаем пройти революционный курс по гитаре.
Подарок от PrimaNota.Ru, забирай!