PrimaNota.ru - самый крупный в мире бесплатный архив песенных текстов, аккордов, табулатур и нот


New Life Church - One Thing Remains - таба, видео

Регистрация Запомнить меня
Войти через:  Facebook Google Twitter Vk Yandex Mail.ru

New Life Church - One Thing Remains - таба, видео

Печатать
Просмотров: 76
Уроки эстрадного вокала в Санкт-Петербурге
-------------------------------------------------------------------------------
                             one thing remains - new life worship
-------------------------------------------------------------------------------
Tabbed by: Alvin p
.8th delay heavier mix lower repeats 
key A 
Tuning:standard
intro hook (runs through 1st verse into chorus 1)
e|--------------------------------------------------|
B|----5-------5-------5-----5-----------------------|
G|--2---2---2---2---4---4-4---4---------------------|
D|4-------2-------2---------------------------------|
A|--------------------------------------------------|
E|--------------------------------------------------|
verse 2
e|--------------------------------------------------|
B|5-5-5-5-5-5-5-5-5-5-5-5-5-5-5-5--repeat-as-needed-|
G|2-2-2-2-2-2-2-2-4-4-4-4-4-4-4-4-------------------|
D|4-4-4-4-2-2-2-2-2-2-2-2-2-2-2-2-------------------|
A|palm-mute-build-to-open-strum---------------------|
E|--------------------------------------------------|
one ting remains lyric in veres 2
e|----------------------------------------------------------------------------|
B|17-17-17-17-17-17-17-17-17-17-17-17-17-17-17-17-----17------17------17--17--|
G|14-14-14-14-14-14-14-14-16-16-16-16-16-16-16-16---14--14--14--14--16--16--16|
D|16-16-16-16-14-14-14-14-14-14-14-14-14-14-14-14-16------14------14----------|
A|----------------------------------------------------------------------------|
E|----------------------------------------------------------------------------|
chorus 2
e|-----------------------------|
B|----17------17------17--17---|
G|--14--14--14--14--16--16--16-|
D|16------14------14-----------|
A|------repeat-as-needed-------|
E|-----------------------------|
bridge chord structurs
e|-----------------------------|
B|15--17--17--14---------------|
G|14--14--16--14---------------|
D|14--14--14--16---------------|
A|-----------------------------|
E|D---A---E---F#---------------|

************************************

| /   slide up
| \   slide down
| h   hammer-on
| p   pull-off
| ~   vibrato
| +   harmonic
| x   Mute note
| b   Bend
| pb  Pre-bend
| br  Bend release
| pbr Pre-bend release
| brb Bend release bend

************************************
Добавлено: 30.12.2015
Другие материалы по этой песне:
  • Аккорды и текст

Страница создана 30.12.2015
http://primanota.ru/new-life-church/one-thing-remains-chords.htm
Привет, Гость.
Предлагаем пройти революционный курс по гитаре.
Подарок от PrimaNota.Ru, забирай!