PrimaNota.ru - самый крупный в мире бесплатный архив песенных текстов, аккордов, табулатур и нот


New Life Church - Oceans - таба, видео

Регистрация Запомнить меня
Войти через:  Facebook Google Twitter Vk Yandex Mail.ru

New Life Church - Oceans - таба, видео

Печатать
Просмотров: 67
-------------------------------------------------------------------------------
                             oceans- New Life Church
-------------------------------------------------------------------------------
Tabbed by: Alvin p
E-mail:
key of d
.8th delay clean tone
Tuning:standard
chorus 
e|---7----7-----14----14---9---9---9---10------------------------------------|
B|----------------------------------------repeat as needed-------------------|
G|7----7----14-----14----9---9---9---9---------------------------------------|
D|---------------------------------------------------------------------------|
A|---------------------------------------------------------------------------|
E|---------------------------------------------------------------------------|
inst
e|------0---------0---------0---------0------------0---------0---------0---------0------|
B|--7-----7---7-----7----7----7---7-----7------5-----5---5-----5---8-----8---8-----8----|
G|----7---------7----------7--------7-----7------6---------6---------9---------9-----9--|
D|9---------9----------7--------7-----------7-7--------7---------9---------9----------9-|
A|--------------------------------------------------------------------------------------|
E|--------------------------------------------------------------------------------------|
verse
e|-----------------------------------------------------------------------------------|
B|-----------------------------------------------------------------------------------|
G|7-7-7-7-7-7-7-7-7-7-7-7-7-9--9--9--11-11-11-11-11-11-11-11-11-11-11-11-11-11-11-11-|
D|9-9-9-9-9-9-9-9-9-9-9-9-9-11-12-12-12-12-12-12-12-12-12-12-12-12-12-12-12-12-12-12-|
A|9-9-9-9-9-9-9-9-9-9-9-9-9-11-12-12-12-12-12-12-12-12-12-12-12-12-12-12-12-12-12-12-|
E|-----------------------------------------------------------------------------------|

e|---------------------------------------------------------------------------|
B|---------------------------------------------------------------------------|
G|6-6-6-6-6-6-6-6-6-6-6-6-6-7-7-7-4-4-4-4-4-4-4-4-4-4-4-4-4-4-4-4------------|
D|7-7-7-7-7-7-7-7-7-7-7-7-7-7-7-7-5-5-5-5-5-5-5-5-5-5-5-5-5-5-5-5------------|
A|7-7-7-7-7-7-7-7-7-7-7-7-7-7-7-7-5-5-5-5-5-5-5-5-5-5-5-5-5-5-5-5------------|
E|---------------------------------------------------------------------------|


************************************

| /   slide up
| \   slide down
| h   hammer-on
| p   pull-off
| ~   vibrato
| +   harmonic
| x   Mute note
| b   Bend
| pb  Pre-bend
| br  Bend release
| pbr Pre-bend release
| brb Bend release bend

************************************
Добавлено: 11.10.2015
Другие материалы по этой песне:
  • Аккорды и текст

Страница создана 11.10.2015
http://primanota.ru/new-life-church/oceans-chords.htm
Привет, Гость.
Предлагаем пройти революционный курс по гитаре.
Подарок от PrimaNota.Ru, забирай!