PrimaNota.ru - самый крупный в мире бесплатный архив песенных текстов, аккордов, табулатур и нот


New Life Church - Grace So Glorious - таба, видео

Регистрация Запомнить меня
Войти через:  Facebook Google Twitter Vk Yandex Mail.ru

New Life Church - Grace So Glorious - таба, видео

Печатать
Просмотров: 64
-------------------------------------------------------------------------------
                             grace so glorious - new life
-------------------------------------------------------------------------------
Tabbed by: Alvin p
.8ths modulated 
Tuning: standard
intro/ lead hood
e|10----------10----------10-------10----------------------------------------|
B|---10-8-7-7----10-8-7-8----8-7-7----10-8-7---------------------------------|
G|-------------------------------------------7/9-----------------------------|
D|---------------------------------------------------------------------------|
A|---------------------------------------------------------------------------|
E|---------------------------------------------------------------------------|
chorus cords
e|---------------------------------------------------------------------------|
B|---------------------------------------------------------------------------|
G|---------------------------------------------------------------------------|
D|7-7-7-7-7-7-7-7-7-7-7-7-7-7-7-7--------------------------------------------|
A|5-5-5-5-5-5-5-5-5-5-5-5-7-7-7-7--------------------------------------------|
E|2-2-2-2-3-3-3-3-5-5-5-5-5-5-5-5--------------------------------------------|
pre chorus
e|12-10-10-12-9-10-9-7-12-10-10-12-9-----------------------------------------|
B|---------------------------------------------------------------------------|
G|14-12-11-12-9/11-9-7-14-12-11-12-9-----------------------------------------|
D|---------------------------------------------------------------------------|
A|---------------------------------------------------------------------------|
E|---------------------------------------------------------------------------|


************************************

| /   slide up
| \   slide down
| h   hammer-on
| p   pull-off
| ~   vibrato
| +   harmonic
| x   Mute note
| b   Bend
| pb  Pre-bend
| br  Bend release
| pbr Pre-bend release
| brb Bend release bend

************************************
Добавлено: 28.04.2016
Другие материалы по этой песне:
  • Аккорды и текст

Страница создана 28.04.2016
http://primanota.ru/new-life-church/grace-so-glorious-chords.htm
Привет, Гость.
Предлагаем пройти революционный курс по гитаре.
Подарок от PrimaNota.Ru, забирай!