PrimaNota.ru - самый крупный в мире бесплатный архив песенных текстов, аккордов, табулатур и нот


New Life Church - Give Me Faith - таба, видео

Регистрация Запомнить меня
Войти через:  Facebook Google Twitter Vk Yandex Mail.ru

New Life Church - Give Me Faith - таба, видео

Печатать
Просмотров: 137
Уроки эстрадного вокала в Санкт-Петербурге
-------------------------------------------------------------------------------
                            Give me Faith - New Life Church
-------------------------------------------------------------------------------
Tabbed by: Alvin P
key A
.8th delay moderate mix and repeats 
Tuning: standard
intro/verse 1
e|----10-----10-----9-----9----7----7-|
B|------------------------------------|
G|--9------9------9-----9----9----9---|
D|7------1------7-----7----7----7-----|
A|------------------------------------|
E|------------------------------------|
pre chorus
e|------5---------5---5-|
B|2-3/5-----2-3/5---5---|
G|----------------------|
D|----------------------|
A|----------------------|
E|----------------------|
chorus chords arpeggios  
e|----4---------4-2-2-5-4---12*--------|
B|5-5-5-2-5-5-2-5-3-3-5-5-5-12*harmoic-|
G|5-6-4-2-5-6-2-5-4-2-2-4-5-12*--------|
D|5-7---4-5-7-4-----------5------------|
A|-------------------------------------|
E|-------------------------------------|
verse 2
e|9----9----12----12----9----9----10----10----|
B|--10---10----10----10---10---10----10----10-|
G|--------------------------------------------|
D|--------------------------------------------|
A|--------------------------------------------|
E|--------------------------------------------|
bridge hook
e|17-16-----------------|
B|------17-----------17-|
G|-------------14-16----|
D|----------------------|
A|----------------------|
E|----------------------|

************************************

| /   slide up
| \   slide down
| h   hammer-on
| p   pull-off
| ~   vibrato
| +   harmonic
| x   Mute note
| b   Bend
| pb  Pre-bend
| br  Bend release
| pbr Pre-bend release
| brb Bend release bend

************************************
Добавлено: 11.10.2015
Другие материалы по этой песне:
  • Аккорды и текст

Страница создана 11.10.2015
http://primanota.ru/new-life-church/give-me-faith-chords.htm
Привет, Гость.
Предлагаем пройти революционный курс по гитаре.
Подарок от PrimaNota.Ru, забирай!