PrimaNota.ru - самый крупный в мире бесплатный архив песенных текстов, аккордов, табулатур и нот


New Life Church - Forever We Sing Hallelujah - таба, видео

Регистрация Запомнить меня
Войти через:  Facebook Google Twitter Vk Yandex Mail.ru

New Life Church - Forever We Sing Hallelujah - таба, видео

Печатать
Просмотров: 138
-------------------------------------------------------------------------------
                             forever - Ne life
-------------------------------------------------------------------------------
Tabbed by: Alvin p
.8th delay heavy repeats med. mix add modulation if possiable 
key G
Tuning:standard
intro hook
e|----7---------7-----|
B|7-8---7-7-7-8---7-5-|
G|-repeat-as-needed---|
D|--------------------|
A|--------------------|
E|--------------------|
pre chorus
e|--------------------|
B|12---10---8---8-----|
G|---7----7---7---9---|
D|--------------------|
A|--------------------|
E|--------------------|
chorus
e|------3-------3-------3-------3--------3-------3------3-------3-|
B|--3-------3-------3-------3--------3-------3-------3------3-----|
G|0---0---0---0---2---2---2---2----0---0---0---0---5---5--5---5---|
D|-repeat-as-needed-----------------------------------------------|
A|----------------------------------------------------------------|
E|----------------------------------------------------------------|
solo\lead
e|----------------------------------------------------------------------------------------|
B|13-13-12-12-12-12-10-10-13-13-12-12-12-10-13-13-13-12-12-12-12-10-8-10-12-12-8-10-12-13-|
G|----------------------------------------------------------------------------------------|
D|----------------------------------------------------------------------------------------|
A|----------------------------------------------------------------------------------------|
E|----------------------------------------------------------------------------------------|

************************************

| /   slide up
| \   slide down
| h   hammer-on
| p   pull-off
| ~   vibrato
| +   harmonic
| x   Mute note
| b   Bend
| pb  Pre-bend
| br  Bend release
| pbr Pre-bend release
| brb Bend release bend

************************************
Добавлено: 11.10.2015
Другие материалы по этой песне:
  • Аккорды и текст

Страница создана 11.10.2015
http://primanota.ru/new-life-church/forever-we-sing-hallelujah-chords.htm
Привет, Гость.
Предлагаем пройти революционный курс по гитаре.
Подарок от PrimaNota.Ru, забирай!