PrimaNota.ru - самый крупный в мире бесплатный архив песенных текстов, аккордов, табулатур и нот


New Life Church - Exalted One - таба, видео

Регистрация Запомнить меня
Войти через:  Facebook Google Twitter Vk Yandex Mail.ru

New Life Church - Exalted One - таба, видео

Печатать
Просмотров: 89
-------------------------------------------------------------------------------
                             exalted one- New Life church
-------------------------------------------------------------------------------
Tabbed by:alvin p
moderated .8th delay favor the mix lesser repeats
key A 
Tuning:standard
intro
e|---------------------------------------------------------------------------|
B|---------------------------------------------------------------------------|
G|---------------------------------------------------------------------------|
D|77777777777777777777777----------------------------------------------------|
A|00000000000000000000000----------------------------------------------------|
E|---drone-guitar one--------------------------------------------------------|

intro main hook/ instrumental hood

e|---------------------------------------------------------------------------|
B|----5~-------5~------------------------------------------------------------|
G|6-7---6--6-7---6-4---------------------------------------------------------|
D|---------------------------------------------------------------------------|
A|---------------------------------------------------------------------------|
E|---------------------------------------------------------------------------|
verse
e|9--------------------------------------------------------------------------|
B|10-10-9-------------10---10-9--------------10------------------------------|
G|9-------9-6-6H7-6H7-----------9-6-6H7-6H7----------------------------------|
D|---------------------------------------------------------------------------|
A|---------------------------------------------------------------------------|
E|---------------------------------------------------------------------------|
chorus
e|9----9--9--9--9--9----9--9--9--9--9----9--9--9--9--9--9--9--9--9-----------|
B|9H10-10-10-10-10-9H10-10-10-10-10-9H10-10-10-10-10-10-12-12-12-12----------|
G|9----9--9--9--9--9----9--9--9--9--9----9--9--9--9--9--9--9--9--9-----------|
D|---------------------------------------------------------------------------|
A|---------------------------------------------------------------------------|
E|---------------------------------------------------------------------------|
bridge
e|14-14-14-14-14-14-14-14-14-14-14-14-14-14-14-14-17-17-17-17-17-17-17-17-17-17-17-17-17-17-17|
B|15-15-15-15-15-15-15-15-14-14-14-14-14-14-14-14-17-17-17-17-17-17-17-17-17-17-17-17-17-17-17|
G|14-14-14-14-14-14-14-14-14-14-14-14-14-14-14-14-14-14-14-14-14-14-14-14-16-16-16-16-16-16-16|
D|--------------------------------------------------------------------------------------------|
A|--------------------------------------------------------------------------------------------|
E|--------------------------------------------------------------------------------------------|

************************************

| /   slide up
| \   slide down
| h   hammer-on
| p   pull-off
| ~   vibrato
| +   harmonic
| x   Mute note
| b   Bend
| pb  Pre-bend
| br  Bend release
| pbr Pre-bend release
| brb Bend release bend

************************************
Добавлено: 11.10.2015
Другие материалы по этой песне:
  • Аккорды и текст

Страница создана 11.10.2015
http://primanota.ru/new-life-church/exalted-one-chords.htm
Привет, Гость.
Предлагаем пройти революционный курс по гитаре.
Подарок от PrimaNota.Ru, забирай!