PrimaNota.ru - самый крупный в мире бесплатный архив песенных текстов, аккордов, табулатур и нот


New Life Church - Deeper - таба, видео

Регистрация Запомнить меня
Войти через:  Facebook Google Twitter Vk Yandex Mail.ru

New Life Church - Deeper - таба, видео

Печатать
Просмотров: 71
Уроки эстрадного вокала в Санкт-Петербурге
-------------------------------------------------------------------------------
                             deeper - new life church
-------------------------------------------------------------------------------
Tabbed by: Alvin p
key-g
.8th delay moderate mix moderate repeat  
Tuning:standard
intro/ bridge as well(NO DELAY)
e|---------------------------------------------------------------------------|
B|4-4-4-4-5-5-5-5-7-7-7-7-7-7-7-7--------------------------------------------|
G|---------------------------------------------------------------------------|
D|2-2-2-2-3-3-3-3-5-5-5-5-5-5-5-5--------------------------------------------|
A|---------------------------------------------------------------------------|
E|---------------------------------------------------------------------------|
verse
e|---15----15----15----15----15----15----17----17----------------------------|
B|12----12----13----13----15----15----15----15-----repeat-as-need------------|
G|---------------------------------------------------------------------------|
D|---------------------------------------------------------------------------|
A|---------------------------------------------------------------------------|
E|---------------------------------------------------------------------------|
chorus
e|----------------------------------------------------------------------------|
B|------2---------3---------3-------3--------3----------3---------3-------3---|
G|----0---0-----0---0-----0---0---0---0-----0---0-----0---0-----0---0---0---0-|
D|----------------------------------------------------------------------------|
A|0h2-------2h3-------3/5-------5-------0h2-------2h3-------3/5-------5-------|
E|----------------------------------------------------------------------------|

e|---------------------------------haromic--------------------2---3----------|
B|----3---------3---------3-----3----12--------3---------3----3---3----------|
G|--0---0-----0---0-----0---0---2----12------0---0-----0---3--2--------------|
D|------------------------------2----12--------------------------------------|
A|5-------0h2-------2h3------------------0h2-------2h3-----------------------|
E|----------------------------------------------------------------3----------|

************************************

| /   slide up
| \   slide down
| h   hammer-on
| p   pull-off
| ~   vibrato
| +   harmonic
| x   Mute note
| b   Bend
| pb  Pre-bend
| br  Bend release
| pbr Pre-bend release
| brb Bend release bend

************************************
Добавлено: 11.10.2015
Другие материалы по этой песне:
  • Аккорды и текст

Страница создана 11.10.2015
http://primanota.ru/new-life-church/deeper-chords.htm
Привет, Гость.
Предлагаем пройти революционный курс по гитаре.
Подарок от PrimaNota.Ru, забирай!