PrimaNota.ru - самый крупный в мире бесплатный архив песенных текстов, аккордов, табулатур и нот


New Life Church - Awakening - таба, видео

Регистрация Запомнить меня
Войти через:  Facebook Google Twitter Vk Yandex Mail.ru

New Life Church - Awakening - таба, видео

Печатать
Просмотров: 97
-------------------------------------------------------------------------------
                             awakening- new life church
-------------------------------------------------------------------------------
Tabbed by:
key D
slight delay
Tuning: standard
instrumental main hook
e|---------------------------------------12-12-14-14-14-14-------------12-12-12-12-12-12-12-12-|
B|12-12-12-12-12-12-14-14-15-15-15-15-15-------------------------------------------------------|
G|---------------------------------------------------------14-14-14-14-------------------------|
D|---------------------------------------------------------------------------------------------|
A|---------------------------------------------------------------------------------------------|
E|---------------------------------------------------------------------------------------------|

e|---------------------------------------12-12-14-14-14-14-------------12-12-12-12-17-17-17-17-|
B|12-12-12-12-12-12-14-14-15-15-15-15-15-------------------------------------------------------|
G|---------------------------------------------------------14-14-14-14-------------------------|
D|---------------------------------------------------------------------------------------------|
A|---------repeat-as-needed--------------------------------------------------------------------|
E|---------------------------------------------------------------------------------------------|
chords used for swells if needed to fill
e|----------12---------------------------------------------------------------|
B|5-5-3-3---12---------------------------------------------------------------|
G|5-6-4-4---12---------------------------------------------------------------|
D|5-7-5-4---harmonic---------------------------------------------------------|
A|D-A-G-Bm--Em---------------------------------------------------------------|
E|---------------------------------------------------------------------------|

************************************

| /   slide up
| \   slide down
| h   hammer-on
| p   pull-off
| ~   vibrato
| +   harmonic
| x   Mute note
| b   Bend
| pb  Pre-bend
| br  Bend release
| pbr Pre-bend release
| brb Bend release bend

************************************
Добавлено: 11.10.2015
Другие материалы по этой песне:
  • Аккорды и текст

Страница создана 11.10.2015
http://primanota.ru/new-life-church/awakening-chords.htm
Привет, Гость.
Предлагаем пройти революционный курс по гитаре.
Подарок от PrimaNota.Ru, забирай!