PrimaNota.ru - самый крупный в мире бесплатный архив песенных текстов, аккордов, табулатур и нот


New Life Church - All We Need - таба, видео

Регистрация Запомнить меня
Войти через:  Facebook Google Twitter Vk Yandex Mail.ru

New Life Church - All We Need - таба, видео

Печатать
Просмотров: 95
-------------------------------------------------------------------------------
                             All we Need - New Life Church
-------------------------------------------------------------------------------
Tabbed by:alvin p
E-mail:

Tuning:standard
key d
electric 1 in brad played with .delay high mix low rep.
electric 2 .8th delay with low mix and high rep.
electric 1 intro
e|----------------------------------------------------|
B|--10-8-7-------7---10-8-7------7---10-8-7-------7---|
G|7--------9-7-9---7--------9-7-9--7--------9-7-9-----|
D|--------------------------------------------------9-|
A|----------------------------------------------------|
E|----------------------------------------------------|
electric 1 verse
e|----------------------------------------------------|
B|--10---10---10---10---8---8---8---8-----------------|
G|7----7----7----7----7---7---7---7-------------------|
D|----------------------------------------------------|
A|----------------------------------------------------|
E|----------------------------------------------------|
electric 1 pre chorus
e|----------------------------------------------------|
B|--7---7---10---10---8---8---8---8-------------------|
G|7---7---7----7----7---7---7---7---------------------|
D|----------------------------------------------------|
A|----------------------------------------------------|
E|----------------------------------------------------|
electric 1 chorus (listen for change in notes)
e|-----10---------10----------------------------------|
B|--10---------10-------------------------------------|
G|7----------9----------------------------------------|
D|----------------------------------------------------|
A|----------------------------------------------------|
E|----------------------------------------------------|
electric 2 intro big chords
e|-3---2---3---3--------------------------------------|
B|-3---3---3---3--------------------------------------|
G|-----2---2---2--------------------------------------|
D|---------2------------------------------------------|
A|-2-----------2--------------------------------------|
E|-3--------------------------------------------------|
electric 2 verse big chords
e|2---3-----------------------------------------------|
B|3---3-----------------------------------------------|
G|2---------------------------------------------------|
D|----------------------------------------------------|
A|----2-----------------------------------------------|
E|----3-----------------------------------------------|
electric 2 pre chorus big cords (accent root not)
e|3---3---3---3---------------------------------------|
B|3---3---3---3---------------------------------------|
G|2---2-------2---------------------------------------|
D|------------2---------------------------------------|
A|2-------2-------------------------------------------|
E|----2---3-------------------------------------------|
electric 2 chorus Arpeggio chord changes (theses structures are to be used) 
e|----------------------------------------------------|
B|----------------------------------------------------|
G|----3--------7------3------4------------------------|
D|--4--------7------4------5--------------------------|
A|5--------7------4------7----------------------------|
E|----------------------------------------------------|


************************************

| /   slide up
| \   slide down
| h   hammer-on
| p   pull-off
| ~   vibrato
| +   harmonic
| x   Mute note
| b   Bend
| pb  Pre-bend
| br  Bend release
| pbr Pre-bend release
| brb Bend release bend

************************************
Добавлено: 11.10.2015
Другие материалы по этой песне:
  • Аккорды и текст

Страница создана 11.10.2015
http://primanota.ru/new-life-church/all-we-need-chords.htm
Привет, Гость.
Предлагаем пройти революционный курс по гитаре.
Подарок от PrimaNota.Ru, забирай!