PrimaNota.ru - самый крупный в мире бесплатный архив песенных текстов, аккордов, табулатур и нот


New Found Glory - Truck Stop Blues - текст песни, таба, бас-таба, видео

Регистрация Запомнить меня
Войти через:  Facebook Google Twitter Vk Yandex Mail.ru

New Found Glory - Truck Stop Blues - текст песни, таба, бас-таба, видео

Печатать
Просмотров: 259
Уроки эстрадного вокала в Санкт-Петербурге
This is Truck Stop Blue of NFG's new album Not Without a Fight.

e|--------------------------------|
B|--------------------------------|
G|--------------------------------|
D|--xx-6-x-8-x-9------------------|
A|--xx-4-x-6-x-7--11\-------------|
E|--------------------------------|

e|------------------------------------------|
B|------------------------------------------|
G|------------------------4--------3--------|
D|-------4-1-----4-1----4---4----4---4------|
A|-----2-------2------2--------4------------|
E|---4-------0------------------------------|
Добавлено: 19.06.2012
Другие материалы по этой песне:

Страница создана 21.03.2012
http://primanota.ru/new-found-glory/truck-stop-blues-chords.htm
Привет, Гость.
Предлагаем пройти революционный курс по гитаре.
Подарок от PrimaNota.Ru, забирай!