PrimaNota.ru - самый крупный в мире бесплатный архив песенных текстов, аккордов, табулатур и нот


New Found Glory - Such A Mess - текст песни, таба, бас-таба, видео

Регистрация Запомнить меня
Войти через:  Facebook Google Twitter Vk Yandex Mail.ru

New Found Glory - Such A Mess - текст песни, таба, бас-таба, видео

Печатать
Просмотров: 152
-------------------------------------------------------------------------------
                             SUCH A MESS - New Found Glory
-------------------------------------------------------------------------------
Tabbed by: Doug

First time I've ever put the effort in to write tabs down. It will be last last, what a 
Here it is though, from the new CD "Not Without A Fight", Such A Mess by New Found Glory.

Tuning: D

Intro/Chorus
e|-------------------------------------------------------------------------|
B|-------------------------------------------------------------------------|
G|-------------------------------------------------------------------------|
D|--0-0-0-0--------0-0-0------------0-0-0---------0-0-0--------------------|
A|--0-0-0-0--------0-0-0-------2----0-0-0---------0-0-0--------------------|
D|--0-0-0-0--7--4--0-0-0---7-4---5--0-0-0---7--4--0-0-0---4-5-2------------| 4x
    x x x x        x x x            x x x         x x x

Bridge                               []
e|-------------------------------------------------------------------------|
B|-------------------------------------------------------------------------|
G|--7-7-7-7-7-7-7-7--7-7-7-7-7-7-7-7--7-7-7-7--7-7-7-7--7-7-7-7---7--------|
D|--7-7-7-7-7-7-7-7--7-7-7-7-7-7-7-7--7-7-7-7--7-7-7-7--7-7-7-7------------|
A|--5-5-5-5-5-5-5-5--5-5-5-5-5-5-5-5--5-5-5-5--5-5-5-5--5-5-5-5------------|
D|--0-0-0-0-0-0-0-0--0-0-0-0-0-0-0-0--0-0-0-0--0-0-0-0--0-0-0-0------------|
      x x x x x x x    x x x x x x x    x x x    x x x    x x x   +

Verse
e|-------------------------------------------------------------------------|
B|-------------------------------------------------------------------------|
G|-------------------------------------------------------------------------|
D|--0-0-0-0-0-0-0-0--5-5-5-5-5-5-5-5--7-7-7-7-7-7-7-7--5-5-5-5-5-5-5-5-----|
A|--0-0-0-0-0-0-0-0--5-5-5-5-5-5-5-5--7-7-7-7-7-7-7-7--5-5-5-5-5-5-5-5-----|
D|--0-0-0-0-0-0-0-0--5-5-5-5-5-5-5-5--7-7-7-7-7-7-7-7--5-5-5-5-5-5-5-5-----| 2x

first time muted
e|-------------------------------------------------------------------------|
B|-------------------------------------------------------------------------|
G|-------------------------------------------------------------------------|
D|--0-0-0-0-0-0-0-0--5-5-5-5-5-5-5-5--7-7-7-7-7-7-7-7--5-5--5--5-5--5------|
A|--0-0-0-0-0-0-0-0--5-5-5-5-5-5-5-5--7-7-7-7-7-7-7-7--5-5--5--5-5--5------|
D|--0-0-0-0-0-0-0-0--5-5-5-5-5-5-5-5--7-7-7-7-7-7-7-7--5-5--5--5-5--5------|
    x x x x x x x x  x x x x x x x x  x x x x x x x x  x x     x x

second time muted
e|-------------------------------------------------------------------------|
B|-------------------------------------------------------------------------|
G|-------------------------------------------------------------------------|
D|--0-0-0-0-0-0-0-0--5-5-5-5-5-5-5-5--7-7-7-7-7-7-7-7--5-------------------|
A|--0-0-0-0-0-0-0-0--5-5-5-5-5-5-5-5--7-7-7-7-7-7-7-7--5-------------------|
D|--0-0-0-0-0-0-0-0--5-5-5-5-5-5-5-5--7-7-7-7-7-7-7-7--5-----4-5-2---------|
    x x x x x x x x  x x x x x x x x  x x x x x x x x  hold

Chorus x2

Bridge (this time, add this at the [] point noted above the bridge tab above)
e|-------------------------------------------------------------------------|
B|-------------------------------------------------------------------------|
G|-----7-----9----11-------------7-----------------------------------------|
D|-------------------------------------------------------------------------|
A|-----5-----7-----9-------------------------------------------------------|
D|-------------------------------------------------------------------------|
             **pick scrape**     +

Verse (on the second time through both open and palm muted, guitar 2 plays this several times)
e|-------------------------------------------------------------------------|
B|-------------------------------------------------------------------------|
G|---7--7--7--7--9--7--7--7------------------------------------------------|
D|---7--7--7--7--7--7--7--7------------------------------------------------|
A|-------------------------------------------------------------------------|
E|-------------------------------------------------------------------------|

Little riff on second verse on guitar 2
e|-------------------------------------------------------------------------|
B|-------------------------------------------------------------------------|
G|--9--7-------------------------------------------------------------------|
D|-------9--7--------------------------------------------------------------|
A|------------10--9--7--5--------------------------------------------------|
D|-----------------------------4-5-2---------------------------------------|

Chorus x4

Breakdown
e|---------------------------------------------------------------------------|
B|---------------------------------------------------------------------------|
G|---------------------------------------------------------------------------|
D|--0-0-0-0-2h4-2-0--0--0-2h4-2----------------------------------------------|
A|--0-0-0-0-2h4-2-0--0--0-2h4-2----------------------------------------------|
E|--0-0-0-0-2h4-2-0--0--0-2h4-2----------------------------------------------|
    x x x x          x  x

On 6th and 8th times, hold last E chord above and then side to an E octave
e|-------------------------------------------------------------------------|
B|-------------------------------------------------------------------------|
G|----/9-------------------------------------------------------------------|
D|-------------------------------------------------------------------------|
A|----/7-------------------------------------------------------------------|
D|-------------------------------------------------------------------------|

Guitar 1
e|-------------------------------------------------------------------------|
B|-------------------------------------------------------------------------|
G|-------------------------------------------------------------------------|
D|--0-0-0-0-----0-0-0-----0-0-0-----0-0-0----------------------------------|
A|--0-0-0-0-----0-0-0-----0-0-0-----0-0-0----------------------------------|
D|--0-0-0-0-----0-0-0-----0-0-0-----0-0-0--4-5-2---------------------------|
    x x x x     x x x     x x x     x x x

Guitar 2 first does a tweaky harmonic
e|-------------------------------------------------------------------------|
B|-------------------------------------------------------------------------|
G|---7---------------------------------------------------------------------|
D|-------------------------------------------------------------------------|
A|-------------------------------------------------------------------------|
D|-------------------------------------------------------------------------|
     +

Guitar 2 then just palm mutes an open D
e|-------------------------------------------------------------------------|
B|-------------------------------------------------------------------------|
G|-------------------------------------------------------------------------|
D|-------------------------------------------------------------------------|
A|-------------------------------------------------------------------------|
D|--000000000000000000000000000000000000000000000000000000-4-5-2-----------|
    xxxxxxxxxxxxxxxxxxxxxxxxxxxxxxxxxxxxxxxxxxxxxxxxxxxxxx

Chorus

| /  slide up
| \  slide down
| h  hammer-on
| p  pull-off
| ~  vibrato
| +  harmonic
| x  Mute note
===============================================================================
Добавлено: 06.04.2012
Другие материалы по этой песне:
  • Аккорды и текст

Страница создана 04.03.2012
http://primanota.ru/new-found-glory/such-a-mess-chords.htm
Привет, Гость.
Предлагаем пройти революционный курс по гитаре.
Подарок от PrimaNota.Ru, забирай!