PrimaNota.ru - самый крупный в мире бесплатный архив песенных текстов, аккордов, табулатур и нот


New Creation Church - Anthem Of Grace - таба, видео

Регистрация Запомнить меня
Войти через:  Facebook Google Twitter Vk Yandex Mail.ru

New Creation Church - Anthem Of Grace - таба, видео

Печатать
Просмотров: 149
Уроки эстрадного вокала в Санкт-Петербурге
Intro

E|--------------------------------------------|
B|-----12----------16---15--------12------11--|
G|--------------------------------------------|
D|--------------------------------------------|
A|--------------------------------------------|
E|--------------------------------------------|

Moving on from Intro


E|--------1/3--1------------1/3--1-----------------------------------------------5-------5--6--|
B|--------------------------------------------6--4--3--3--4-----------3--4--6-----8------------|
G|--0--0--------------------------------3---------------------5----3---------------------------|
D|--------------------3--3---------------------------------------------------------------------|
A|---------------------------------------------------------------------------------------------|
E|---------------------------------------------------------------------------------------------|

E|------------13/15--13----------13------------------13/15--13----------13------|
B|------------------------------------------------------------------------------|
G|--15--15-------------------15------15------14--14-----------------14------14--|
D|------------------------------------------------------------------------------|
A|------------------------------------------------------------------------------|
E|------------------------------------------------------------------------------|


E|----13----------------------------------------------10--11--13-----------------------|
B|--------16--15--15--16--13------11h13-------------------13--11--10--11---------------|
G|-------------------------------------------------------------------------------------|
D|-------------------------------------------------------------------------------------|
A|-------------------------------------------------------------------------------------|
E|-------------------------------------------------------------------------------------|

Shout out to sean0913 for helping with the tabs

-|manishx7|-
Добавлено: 08.02.2016
Другие материалы по этой песне:
  • Аккорды и текст

Страница создана 08.02.2016
http://primanota.ru/new-creation-church/anthem-of-grace-chords.htm
Привет, Гость.
Предлагаем пройти революционный курс по гитаре.
Подарок от PrimaNota.Ru, забирай!