PrimaNota.ru - самый крупный в мире бесплатный архив песенных текстов, аккордов, табулатур и нот


New Amsterdams - A Goodbye Rye - таба, видео

Регистрация Запомнить меня
Войти через:  Facebook Google Twitter Vk Yandex Mail.ru

New Amsterdams - A Goodbye Rye - таба, видео

Печатать
Просмотров: 103
-----------------------------------------------------------------------------
      A GOODBYE RYE - The New Amsterdams (originally by Richard Bruckner
-----------------------------------------------------------------------------
Tabbed By: Breck
Email: screth@gmail.com

Tuning: Standard
Capo 3

Chords

   G   Em  C   Am
E -3---0---0---0-
B -3---0---1---1-
G -0---0---0---2-
D -0---2---2---2-
A -2---2---3---0-
E -3---0-------0-

Intro and Verse (listen to song for strum count) x = strum count

e|-------3--------0-------0-------0-----0----0--------0--------0-------0----|
B|-------3--------0-------1-------2-----2p0--0--------1--------2-------1----|
G|-------0--------0-------0-------3-----3----0--------0--------3-------0----|
D|-------0-x4-----2-x6----2-x6----3-x3--3----2-x6-----2-x6-----3-x6----2-x3-|
A|-------2--------2-------3------------------2--------3----------------3----|
E|-0-2-0-3-----2--0--------------------------0------------------------------|


Once upon a blue
Thing or two
Eyes in sight
The moon confused
We saw the sparks fly
And we watched their lies
Some died in retreat
Some in jealousy

You know boredom breeds
Temptation in its wake
But, look at what temptation has done
The spirit is here in the hollow
A message at the bottom of the bottle
Oh, the sky tonight is gray
All the quiver and the quake

Reaching away
Goodbye Rye
Been bled on down the road
When the buzz was over
It was getting cold

Oh the years go slow
So we're lying low
Do you want your name to burn away?
Oh, but I decide
Honey, will I ride?
Along and through
And over you
Sleep shame
Reno's low behind in flames

With your misty mist
And your low-land frame
Won't you sleep shame?


************************************

| /   slide up
| \   slide down
| h   hammer-on
| p   pull-off
| ~   vibrato
| +   harmonic
| x   Mute note
| b   Bend
| pb  Pre-bend
| br  Bend release
| pbr Pre-bend release
| brb Bend release bend

************************************
Добавлено: 20.05.2012
Другие материалы по этой песне:
  • Аккорды и текст

Страница создана 20.05.2012
http://primanota.ru/new-amsterdams/a-goodbye-rye-chords.htm
Привет, Гость.
Предлагаем пройти революционный курс по гитаре.
Подарок от PrimaNota.Ru, забирай!