PrimaNota.ru - самый крупный в мире бесплатный архив песенных текстов, аккордов, табулатур и нот


Nevertheless - Real - текст песни, таба, видео

Регистрация Запомнить меня
Войти через:  Facebook Google Twitter Vk Yandex Mail.ru

Nevertheless - Real - текст песни, таба, видео

Печатать
Просмотров: 251
NEVERTHELESS- ''The Real''
tabbed by jeremy campbell
www.neverthelessmusic.com
key*
slide=..
Hammer=h




e|----------------------------------------------------------------|
B|----------------------------------------------------------------|
G|----------------------------------------------------------------|
D|----------------------------------------------------------------|
A|-7--9-9..7..9---4..5..4--4---7--9-9..7..9----11h12h11-14-12-11--|
E|----------------------------------------------------------------|

e|----------------------------------------------------------------|
B|---------------------------------------------------10-----10----|
G|----------------------------------------------9-11---9------9---|
D|-----------------------------------------9..11----------11------|
A|-7--9-9..7..9---4..5..4--4---7..9--11..12-----------------------|
E|----------------------------------------------------------------| 
Добавлено: 05.05.2012
Другие материалы по этой песне:
  • Аккорды и текст

Страница создана 10.03.2012
http://primanota.ru/nevertheless/real-chords.htm
Привет, Гость.
Предлагаем пройти революционный курс по гитаре.
Подарок от PrimaNota.Ru, забирай!