PrimaNota.ru - самый крупный в мире бесплатный архив песенных текстов, аккордов, табулатур и нот


Neverstore - Work Eat Sleep Repeat - таба, видео

Регистрация Запомнить меня
Войти через:  Facebook Google Twitter Vk Yandex Mail.ru

Neverstore - Work Eat Sleep Repeat - таба, видео

Печатать
Просмотров: 284
Intro

eb------------------------------------------------------------------|
Bb------------------------------------------------------------------|
Gb-5----------------------------------------------------------------|
Db-7----------------------------------------------------------------|
Ab-7-x8-------------------------------------------------------------|
Eb-5----------------------------------------------------------------|

Intro and Verse

eb--------------------------------------------------------------|
Bb--------------------------------------------------------------|
Gb-5---2---4---9----7-------------------------------------------|
Db-7---3---5---10---9-------------------------------------------|
Ab-7x4-3x4-5x4-10x2-10-x2---------------------------------------|
Eb-5---1---3---8----7-------------------------------------------|

eb--------------------------------------------------------------|
Bb--------------------------------------------------------------|
Gb-5---2---4----------------------------------------------------|
Db-7---3---5----------------------------------------------------|
Ab-7x4-3x4-5x8--------------------------------------------------|
Eb-5---1---3----------------------------------------------------| X2

Pre chorus


eb--------------------------------------------------------------|
Bb----------------5---------------------------------------------|
Gb-2----1----5----5---------------------------------------------|
Db-3----2----7----5x4-------------------------------------------|
Ab-3x4--2x4--7x4--3---------------------------------------------|
Eb-1----0----5--------------------------------------------------|X2


eb------------------------------------------------------------------|
Bb------------------------------------------------------------------|
Gb-2-----1~---------------------------------------------------------|
Db-3-----2~---------------------------------------------------------|
Ab-3x4---2~---------------------------------------------------------|
Eb-1-----0~---------------------------------------------------------|

Chorus


eb--------------------------------------------------------------|
Bb--------------------------------------------------------------|
Gb-------------5------------------------------------------------|
Db-7-----3-----5x16--5------------------------------------------|
Ab-7x16--3x16--3-----5x16---------------------------------------|
Eb-5-----1-----------3------------------------------------------|X2

Chorus Lead

eb--------------------------------------------------------------|
Bb--------------------------------------------------------------|
Gb-14------10------17-----12------------------------------------|
Db-x--x16--x--x16--x--x16-x-x16---------------------------------|
Ab-12------8-------15-----10------------------------------------|
Eb--------------------------------------------------------------|X2

Bridge


eb------------------------------------------------------------|
Bb----------10/-------------10/-------------------------------|
Gb----------9-/-------------9-/-------------------------------|
Db-7-7------7-/---7-7--7----7-/-------------------------------|
Ab-7-7------------7-7--7--------------------------------------|
Eb-5-5------------5-5--5--------------------------------------|X3


eb--------------------------------------------------------------|
Bb--------------------------------------------------------------|
Gb-----------------------7-7-9-9-9-9----------------------------|
Db--7-7-7-7-9-9-9-101010-7-7-9-9-9-9----------------------------|
Ab--7-7-7-7-9-9-9-101010-5-5-7-7-7-7----------------------------|
Eb--5-5-5-5-7-7-7-8-8-8-----------------------------------------|

Its your future at the doooooorrrrr

eb--------------------------------------------------------------|
Bb--------------------------------------------------------------|
Gb--------------------------------------------------------------|
Db--3-----5-----7-----3----5------------------------------------|
Ab--3x16--5x16--7x32--3x16-5x16---------------------------------|
Eb--1-----3-----5-----1----3------------------------------------|


eb--------------------------------------------------------------|
Bb--------------------------------------------------------------|
Gb-10----12------14---------------------------------------------|
Db-x-x16-x-x16---x-x16------------------------------------------|
Ab-8-----10------12---------------------------------------------|
Eb--------------------------------------------------------------|

Dat clean bit

eb--------------------------------------------------------------|
Bb--------------------------------------------------------------|
Gb------5-----5-----5-----5-----5-----5-----4----4/5------------|
Db--3-3---3-3---2-2---2-2---------------------------------------|
Ab--------------------------0-0---0-0---2-2--3-3----------------|
Eb--------------------------------------------------------------|

eb---------------------------------------------------------------|
Bb---------------------------------------------------------------|
Gb-------5-----5---2-4---2-4---2-4---2-4---2-4---4-2---4-2---4-2-|
Db---3-3---3-3---2-----2-----2-----2-----2-----2-----2-----2-----|
Ab---------------------------------------------------------------|
Eb---------------------------------------------------------------|

eb--------------------------------------------------------------|
Bb--------------------------------------------------------------|
Gb----------------5~--------------------------------------------|
Db---7~-----3~----5~----5~--------------------------------------|
Ab---7~-----3~----3~----5~--------------------------------------|
Eb---5~-----1~----------3~--------------------------------------|

eb--------------------------------------------------------------|
Bb--------------------------------------------------------------|
Gb--------------------------------------------------------------|
Db-7------------------------------------------------------------|
Ab-7x9----------------------------------------------------------|
Eb-5------------------------------------------------------------|
Добавлено: 14.12.2013
Другие материалы по этой песне:
  • Аккорды и текст

Страница создана 14.12.2013
http://primanota.ru/neverstore/work-eat-sleep-repeat-chords.htm
Привет, Гость.
Предлагаем пройти революционный курс по гитаре.
Подарок от PrimaNota.Ru, забирай!