PrimaNota.ru - самый крупный в мире бесплатный архив песенных текстов, аккордов, табулатур и нот


Neverset - Headache - таба, видео

Регистрация Запомнить меня
Войти через:  Facebook Google Twitter Vk Yandex Mail.ru

Neverset - Headache - таба, видео

Печатать
Просмотров: 128
----------------------------------------------------------------------------
                                 Headache
                                 Neverset
----------------------------------------------------------------------------

Hello, I'm here again to make another tab for the awesome band neverset. First of, the 
riffs are sweet! And the ah ah ah ah ah ah oh's the singer does are awesome! Enjoy!

Username: dkm817 (same on X box live)
Email: guitardrums@rockfan.com

Guitar 1 Rhythmic (B F# B E G# C#)
Guitar 2 Lead     (B F# B E G# C#)

Intro 1

Guitar 1
C#----------------------------------------------------------|
G#------9------9----9------9------9----9------9------9----9-|
E -----14-----14---14-----14-----14---14-----14-----14---14-|
B -0------0------0----0------0------0----0------0------0----| x2
F#----------------------------------------------------------|
B ----------------------------------------------------------|

Guitar 1 continued
C#--------------------|
G#------9------9----9-|
E -----14-----14---14-|
B -0------0------0----|
F#--------------------|
B --------------------|

Guitar 2
C#---------------------------------------------------------------|
G#-------14-15brbrbr-------14-15brbr-------14-15brbr-------14-15-|
E ----13----------------13--------------13--------------13-------|
B ----------------------------------------------------0~~~~~~~~~-|
F#----------------------------------------------------0~~~~~~~~~-|
B ----------------------------------------------------0~~~~~~~~~-|

Intro 2  Sorry if it's hard to read
Here We Go!

Guitar 1 & 2
C#---------------------------------------------------------------------------|
G#---------------------------------------------------------------------------|
E -------------------------------------------------------------------7-7-7-7-|
B -0~~-6-0~~-6-0-6~-0~~-6-0~~-6-0-6~-0~~-6-0~~-6-0-6~-0~~-6-0~-0--0--x-x-x-x-|
F#-0~~-6-0~~-6-0-6~-0~~-6-0~~-6-0-6~-0~~-6-0~~-6-0-6~-0~~-6-0~-0--0--5-5-5-5-|
B -0~~-6-0~~-6-0-6~-0~~-6-0~~-6-0-6~-0~~-6-0~~-6-0-6~-0~~-6-0~-0--0----------|
pm                                                             .  .

Guitar 1 & 2
C#---------------------------------------------------------------------|
G#---------------------------------------------------------------------|
E ---------------------------------------------------------------------|
B -0~~-6-0~-0-0-6--0-0-6--0~~-6-0~-0-0-6--0-0-6--0~~-6-0~-0-0-6--0-0-6-|
F#-0~~-6-0~-0-0-6--0-0-6--0~~-6-0~-0-0-6--0-0-6--0~~-6-0~-0-0-6--0-0-6-|
B -0~~-6-0~-0-0-6--0-0-6--0~~-6-0~-0-0-6--0-0-6--0~~-6-0~-0-0-6--0-0-6-|
pm          . .    . .             . .    . .             . .    . .

Guitar 1 & 2 continued
C#------------------------|
G#------------------------|
E ----------------7-7-7-7-|
B -0~~-6-0~-0--0--x-x-x-x-|
F#-0~~-6-0~-0--0--5-5-5-5-|
B -0~~-6-0~-0--0----------|
pm          .  .

Verse

Guitar 1 & 2
C#---------------------------------------------|
G#---------------------------------------------|
E ---------------------------------------------|
B ------6-0~-----0------6-0~----------------6--|
F#------6-0~-----0------6-0~-------------------|
B ------6-0~-----0------6-0~-----0--5-6--5-----|
pm               .

Guitar 1 & 2
C#-----------------------------------------------|
G#-----------------------------------------------|
E -----------------------------------------------|
B -0------6-0~-----0------6-0~-------------------|
F#-0------6-0~-----0------6-0~----------------6--|
B -0------6-0~-----0------6-0~-----0--5-6--5-----|

Chorus

Guitar 1 & 2
C#---------------------------------------------------------------------------|
G#---------------------------------------------------------------------------|
E -------------------------------------------------------------------7-7-7-7-|
B -0~~-6-0~~-6-0-6~-0~~-6-0~~-6-0-6~-0~~-6-0~~-6-0-6~-0~~-6-0~-0--0--x-x-x-x-|
F#-0~~-6-0~~-6-0-6~-0~~-6-0~~-6-0-6~-0~~-6-0~~-6-0-6~-0~~-6-0~-0--0--5-5-5-5-|
B -0~~-6-0~~-6-0-6~-0~~-6-0~~-6-0-6~-0~~-6-0~~-6-0-6~-0~~-6-0~-0--0----------|
pm                                                             .  .

Guitar 1 & 2
C#---------------------------------------------------------------|
G#---------------------------------------------------------------|
E ---------------------------------------------------------------|
B -0~~-6-0~-0-0-6--0-0-6--0~~-6-0~~-6-0-6~-0~~-6-0~-0-0-6--0-0-6-|
F#-0~~-6-0~-0-0-6--0-0-6--0~~-6-0~~-6-0-6~-0~~-6-0~-0-0-6--0-0-6-|
B -0~~-6-0~-0-0-6--0-0-6--0~~-6-0~~-6-0-6~-0~~-6-0~-0-0-6--0-0-6-|
pm          . .    . .                              . .    . .

Guitar 1 & 2 continued
C#------------------------|
G#------------------------|
E ----------------7-7-7-7-|
B -0~~-6-0~-0--0--x-x-x-x-|
F#-0~~-6-0~-0--0--5-5-5-5-|
B -0~~-6-0~-0--0----------|
pm          .  .

Verse

Guitar 1 & 2
C#---------------------------------------------|
G#---------------------------------------------|
E ---------------------------------------------|
B ------6-0~-----0------6-0~----------------6--|
F#------6-0~-----0------6-0~-------------------|
B ------6-0~-----0------6-0~-----0--5-6--5-----|
pm               .

Guitar 1 & 2
C#-----------------------------------------------|
G#-----------------------------------------------|
E -----------------------------------------------|
B -0------6-0~-----0------6-0~-------------------|
F#-0------6-0~-----0------6-0~----------------6--|
B -0------6-0~-----0------6-0~-----0--5-6--5-----|

Chorus

Guitar 1 & 2
C#---------------------------------------------------------------------------|
G#---------------------------------------------------------------------------|
E -------------------------------------------------------------------7-7-7-7-|
B -0~~-6-0~~-6-0-6~-0~~-6-0~~-6-0-6~-0~~-6-0~~-6-0-6~-0~~-6-0~-0--0--x-x-x-x-|
F#-0~~-6-0~~-6-0-6~-0~~-6-0~~-6-0-6~-0~~-6-0~~-6-0-6~-0~~-6-0~-0--0--5-5-5-5-|
B -0~~-6-0~~-6-0-6~-0~~-6-0~~-6-0-6~-0~~-6-0~~-6-0-6~-0~~-6-0~-0--0----------|
pm                                                             .  .

Guitar 1 & 2
C#---------------------------------------------------------------|
G#---------------------------------------------------------------|
E ---------------------------------------------------------------|
B -0~~-6-0~-0-0-6--0-0-6--0~~-6-0~~-6-0-6~-0~~-6-0~-0-0-6--0-0-6-|
F#-0~~-6-0~-0-0-6--0-0-6--0~~-6-0~~-6-0-6~-0~~-6-0~-0-0-6--0-0-6-|
B -0~~-6-0~-0-0-6--0-0-6--0~~-6-0~~-6-0-6~-0~~-6-0~-0-0-6--0-0-6-|
pm          . .    . .                              . .    . .

Guitar 1 & 2 continued
C#------------------------|
G#------------------------|
E ----------------7-7-7-7-|
B -0~~-6-0~-0--0--x-x-x-x-|
F#-0~~-6-0~-0--0--5-5-5-5-|
B -0~~-6-0~-0--0----------|
pm          .  .

Bridge
C#----------------------------|
G#----------------------------|
E ----------------------------|
B -0~~~~~~~~~~~~~~~~~~~~~~~~~~
F#-0~~~~~~~~~~~~~~~~~~~~~~~~~~
B -0~~~~~~~~~~~~~~~~~~~~~~~~~~

Breakdown 1

Guitar 1 & 2
C#-------------------------------------|
G#-------------------------------------|
E -------------------------------------|
B -5~~-3~~-5~~-6~-5~-3-3--5~~-3~~-5~~--| x2
F#-5~~-3~~-5~~-6~-5~-3-3--5~~-3~~-5~~--|
B -5~~-3~~-5~~-6~-5~-3-3--5~~-3~~-5~~--|

Guitar 1 & 2 continued
C#-----------------------------------------------|
G#-----------------------------------------------|
E ---------------------------------------7-7-7-7-|
B -5~~-3~~-5~~-6~-5~-3-3--5~~-3~~-5~~-0--x-x-x-x-|
F#-5~~-3~~-5~~-6~-5~-3-3--5~~-3~~-5~~-0--5-5-5-5-|
B -5~~-3~~-5~~-6~-5~-3-3--5~~-3~~-5~~-0----------|
pm                                    .

Breakdown 2

Guitar 1 & 2
C#-------------------------------------------------------------------------|
G#-------------------------------------------------------------------------|
E ----------------------------------------------------------------7-7-7-7--|
B -0~~-6-0~--6*br--0~~-6-0~--------0~~-6-0~--6*br--0~~-6-0~-0--0--x-x-x-x--| x2
F#-0~~-6-0~--------0~~-6-0~--6*br--0~~-6-0~--------0~~-6-0~-0--0--5-5-5-5--|
B -0~~-6-0~--------0~~-6-0~--------0~~-6-0~--------0~~-6-0~-0--0-----------|
pm                                                          .  .

Verse

Guitar 1 & 2
C#---------------------------------------------|
G#---------------------------------------------|
E ---------------------------------------------|
B ------6-0~-----0------6-0~----------------6--|
F#------6-0~-----0------6-0~-------------------|
B ------6-0~-----0------6-0~-----0--5-6--5-----|
pm               .

Guitar 1
C#------------------------------------------------------|
G#------------------------------------------------------|
E ------------------------------------------------------|
B -0------6-0~-----0------6-0~-------------------6-5-3~-|
F#-0------6-0~-----0------6-0~-------------------6-5-3~-|
B -0------6-0~-----0------6-0~-------------------6-5-3~-|

Guitar 2
C#------------------------------------------------------|
G#------------------------------------------------------|
E ------------------------------------------------------|
B -0------6-0~-----0------6-0~----------7-8-9-10-6-5-3~-|
F#-0------6-0~-----0------6-0~-7-8-9-10----------6-5-3~-|
B -0------6-0~-----0------6-0~-------------------6-5-3~-|
pm                             . . . .  . . . .

Chorus

Guitar 1 & 2
C#---------------------------------------------------------------------------|
G#---------------------------------------------------------------------------|
E -------------------------------------------------------------------7-7-7-7-|
B -0~~-6-0~~-6-0-6~-0~~-6-0~~-6-0-6~-0~~-6-0~~-6-0-6~-0~~-6-0~-0--0--x-x-x-x-|
F#-0~~-6-0~~-6-0-6~-0~~-6-0~~-6-0-6~-0~~-6-0~~-6-0-6~-0~~-6-0~-0--0--5-5-5-5-|
B -0~~-6-0~~-6-0-6~-0~~-6-0~~-6-0-6~-0~~-6-0~~-6-0-6~-0~~-6-0~-0--0----------|
pm                                                             .  .

Guitar 1 & 2
C#---------------------------------------------------------------|
G#---------------------------------------------------------------|
E ---------------------------------------------------------------|
B -0~~-6-0~-0-0-6--0-0-6--0~~-6-0~~-6-0-6~-0~~-6-0~-0-0-6--0-0-6-|
F#-0~~-6-0~-0-0-6--0-0-6--0~~-6-0~~-6-0-6~-0~~-6-0~-0-0-6--0-0-6-|
B -0~~-6-0~-0-0-6--0-0-6--0~~-6-0~~-6-0-6~-0~~-6-0~-0-0-6--0-0-6-|
pm          . .    . .                              . .    . .

Outro

Guitar 1 & 2
C#----------------------------|
G#----------------------------|
E ----------------------------|
B -0~~~~~~~~~~~~~~~~~~~~~~~~~~|
F#-0~~~~~~~~~~~~~~~~~~~~~~~~~~|
B -0~~~~~~~~~~~~~~~~~~~~~~~~~~|

Tab Legend
h  -  hammer-on
p  -  pull-off
/  -  slide up
\  -  slide down
ps/-  pickslide up
ps\-  pickslide down
~  -  let ring
pm.-  palm mute
b  -  bend
r  -  return from bend
*  -  harmonic

There you have it. Another tab by Neverset by me. I can't believe they are so unknown... 
deserve attention, because they work hard for it. And remember to... ROCK OUT!!!!!
Добавлено: 28.07.2012
Вам также может быть интересно:
Другие материалы по этой песне:
  • Аккорды и текст

Страница создана 28.07.2012
http://primanota.ru/neverset/headache-chords.htm
Привет, Гость.
Предлагаем пройти революционный курс по гитаре.
Подарок от PrimaNota.Ru, забирай!