PrimaNota.ru - самый крупный в мире бесплатный архив песенных текстов, аккордов, табулатур и нот


Neverne Bebe - Da Ima Nas - аккорды и текст, видео

Регистрация Запомнить меня
Войти через:  Facebook Google Twitter Vk Yandex Mail.ru

Neverne Bebe - Da Ima Nas - аккорды и текст, видео

Печатать
Просмотров: 88
Уроки эстрадного вокала в Санкт-Петербурге
Da Ima Nas
Neverne Bebe
INTRO: A E H C#m
       A E H E     4X

A           E    H          C#m
Korak iznad duge tanka linija
oped svoje misli govorim na glas
 koliko cu puta oteradi strah
samo da si tu i da ima nas...

INTRO 1X

Veca sam od snova korak ili dva
koliko je samo kilometara  pravim te od vega
sto mi neko da nek nam dobar vetar snove pogura


Pogledaj u sunce
iznad oblaka
to sto tamo vidis, to smo ti i ja
Pogledaj u nebo
pogledaj u san
to se zove ljubav, to smo ti i ja

INTRO 1X

Opet mi o svemu pricaj na sav glas
ponekad o sreci, da li ima nas

sve dane boje kupicu,
bas sve reci
sto se nikad ne cuju,
sve grane sto nam dusu spajaju
H
toliko te volim
A              H
samo da si tu...

< CHORUS >

INTRO:
e--------4h5-7-7-7-7/9-7----2h4-2-0-2-0-2/4---------4h5-7-7-7-7/9-7-
H-------------------------------------------------------------------
G-------------------------------------------------------------------

e-------4p2-0-4-2-0-2-4-0-------------------------------------------
H-------------------------2-----------------------------------------
G-------------------------------------------------------------------

e--------4h5-7-7-7-7/9-7----2h4-2-0-2-0-2/4-------4h5-7-7-7-7/9-7---
H-------------------------------------------------------------------
G-------------------------------------------------------------------

e-------------------------------------------------------------------
H-----7/9--7/5-7-5-7--7/9-5-----------------------------------------
G---------------------------6---------------------------------------
Добавлено: 24.12.2015
Другие материалы по этой песне:
  • Аккорды и текст

Страница создана 24.12.2015
http://primanota.ru/neverne-bebe/da-ima-nas-chords.htm
Привет, Гость.
Предлагаем пройти революционный курс по гитаре.
Подарок от PrimaNota.Ru, забирай!