PrimaNota.ru - самый крупный в мире бесплатный архив песенных текстов, аккордов, табулатур и нот


Nevermore - Psalm Of Lydia - текст песни, таба, бас-таба, видео

Регистрация Запомнить меня
Войти через:  Facebook Google Twitter Vk Yandex Mail.ru

Nevermore - Psalm Of Lydia - текст песни, таба, бас-таба, видео

Печатать
Просмотров: 260
This tab is of the first "solo" (of Apreggios) at the beginning of the song.
I'm 100% positive this is the correct tab. Enjoy.....if anyone would like to tell me how 
can submit a sweep picking lesson email me at k_sanders63@yahoo.com thanks

Tuning: drop-D tuning down one half step

INTRO, FIRST PART (0:00)  -GUITAR 1-
|-----------------------------------------------------------------|
|-----------------------------------------------------------------|
|-----------------------------------------------------------------|
|---5/7---5/7-------5/7---8\7-5/7----3/5---3/5-------7/8---11/12--|
|---3/5---3/5-------3/5---6\5-3/5----1/3---1/3-------5/6----9/10--|
|-0-----0-----0-0-0-----0----------0-----0-----0-0-0-----0--------|

APREGGIO SOLO FIGURE 1

GUITAR 2 (apreggio "solo") (0:18)

tuning: standard tuning down one half step

  V-------- ^------- V----^-- V----^--- V-------- ^---------|
|-11p7-------------7-11p7---7-10p7----7-10p7-------------7--|
|-----9-----------9------9-9------9--9------8-----------8---|
|------8---------8--------8--------8---------7---------7----|
|-------9-------9-----------------------------9-------9-----|
|--------11-6h11-------------------------------10-5h10------|
|-----------------------------------------------------------|
|
GUITAR 1 (RHYTHM PART)
|
|-0----*----*-----*---*----*----*----*----0---*----*-------|
|-0----*----*-----*---*----*----*----*----0---*----*-------|
|-4----*----*-----*---*----*----*----*----4---*----*-------|
|-6----*----*-----*---*----*----*----*----5---*----*-------|
|-6----*----*-----*---*----*----*----*----5---*----*-------|
|----------------------------------------------------------|

APREGGIO SOLO FIG. 1 CONT.

GUITAR 2

  V------------ ^------------ V-------------- ^----------------|
|-15p10--------------------10-19p15------------------------15--|
|------12----------------12--------15--------------------15----|
|--------12------------12------------16----------------16------|
|----------12--------12----------------17------------17--------|
|------------14-10h14--------------------17--------17----------|
|------------------------------------------19-15h19------------|
|
GUITAR 1
|
|-0----------*----*--------*---*-----------*----*-------------|
|-0----------*----*--------*---*-----------*----*-------------|
|-4----------*----*--------*---*-----------*----*-------------|
|-5----------*----*--------*---*-----------*----*-------------|
|-5----------*----*--------*---*-----------*----*-------------|
|-------------------------------------------------------------|

APREGGIO SOLO FIG 1 CONT.

GUITAR 2

  V---------^----     T       V ^----- V-----^-----  V------^------|
|-19h22-19------19h22-24p22p19------19-21p18------18-21p18------18-|
|---------20--20--------------20--20--------19--19--------19--19---|
|-----------19------------------19------------18------------18-----|
|------------------------------------------------------------------|
|------------------------------------------------------------------|
|------------------------------------------------------------------|
|
GUITAR 1
|
|-0-------------*-----*-----*------*---0-------*-----*--------*----|
|-0-------------*-----*-----*------*---0-------*-----*--------*----|
|-4-------------*-----*-----*------*---3-------*-----*--------*----|
|-5-------------*-----*-----*------*---4-------*-----*--------*----|
|-5-------------*-----*-----*------*---4-------*-----*--------*----|
|------------------------------------------------------------------|

APREGGIO SOLO FIG. 1 CONT.

GUITAR 2

  T    V-^----- V------^----- V------^----- V------|
|-24p18------18-22p18------17-20p17------17-20p17--|
|------19--19--------19--19--------18--18----------|
|--------18------------18------------17------------|
|--------------------------------------------------|
|--------------------------------------------------|
|--------------------------------------------------|
|
GUITAR 1
|
|-0--------*--------*---*-----0--------*----------|
|-0--------*--------*---*-----0--------*----------|
|-3--------*--------*---*-----2--------*----------|
|-4--------*--------*---*-----3--------*----------|
|-4--------*--------*---*-----3--------*----------|
|-------------------------------------------------|

APREGGIO SOLO FIG. 1 CONT.

GUITAR 2

  T       V------- ^----------------------------------------|    ^
|-24p20p17--------------------17h20-------------------------|
|---------18----------------18------20~~~~~-----------------|
|-----------17------------17--------19~~~~~full-------------|
|-------------19--------19----------------------------------|
|---------------20-15h20------------------------------------|
|-----------------------------------------------------------|
|
GUITAR 1
|
|-0-----------*-----*---*--------*-------------------------|
|-0-----------*-----*---*--------*-------------------------|
|-2-----------*-----*---*--------*-------------------------|
|-3-----------*-----*---*--------*-------------------------|
|-3-----------*-----*---*--------*--0--2-2-2---6--5--3--2--|
|-----------------------------------0--2-2-2---6--5--2--2--|


--------------------------Legend---------------------------
p= pull off
h= hammer on
T= tap note
V= sweep pick up
^= sweep pick downward
*= repeat chord shown before it
~= pull up and down
-----------------------------------------------------------
Добавлено: 25.04.2012
Другие материалы по этой песне:

Страница создана 03.04.2012
http://primanota.ru/nevermore/psalm-of-lydia-chords.htm
Привет, Гость.
Предлагаем пройти революционный курс по гитаре.
Подарок от PrimaNota.Ru, забирай!