PrimaNota.ru - самый крупный в мире бесплатный архив песенных текстов, аккордов, табулатур и нот


Never Shout Never - Lost At Sea - аккорды и текст, видео

Регистрация Запомнить меня
Войти через:  Facebook Google Twitter Vk Yandex Mail.ru

Never Shout Never - Lost At Sea - аккорды и текст, видео

Печатать
Просмотров: 38
Lost At Sea
Never Shout Never
-------------------------------------------------------------------------------
                                              LOST AT SEA - Never Shout Never
-------------------------------------------------------------------------------
Tabbed by: svcastaneda

You just play a pattern for the chorus or you can play it in the beginning as an 
intro and then play them as chords instead. Christofer used the pattern for the 
first chorus only and then play the rest of the song with just chords. He also 
used a shaker for the verses so you can either do that or play this in its place 
(make sure to play the verses as chords!). Whichever you prefer!


This is the pattern he uses to play the chorus (NOT the verses!):
    Am      F        C         G  
e|--0-------1-------0-------3------------------------------------------------|
B|--1---1---1---1---1---1---0---0--------------------------------------------|
G|--2---2---2---2---0---0---0---0--------------------------------------------|
D|--x-------x-------x-------x------------------------------------------------|
A|--0-------x-------3-------x------------------------------------------------|
E|--x-------1-------x-------3------------------------------------------------|

   C/B
e|--0---|
B|--1---|
G|--0---|
D|--0---|
A|--2---|
E|--x---|

{chorus}
Am     F       C
If I'm lost at sea,
G       Am         F          C           G
Tell my mother, my father, my sisters, my brother,
   Am             F         C           G
My friends and my foes, and all my past lovers,
     F      G         C  (
Добавлено: 11.03.2016
Другие материалы по этой песне:
  • Аккорды и текст

Страница создана 11.03.2016
http://primanota.ru/never-shout-never/lost-at-sea-chords.htm
Привет, Гость.
Предлагаем пройти революционный курс по гитаре.
Подарок от PrimaNota.Ru, забирай!