PrimaNota.ru - самый крупный в мире бесплатный архив песенных текстов, аккордов, табулатур и нот


Neutral Milk Hotel - Through My Tears - текст песни, таба, видео

Регистрация Запомнить меня
Войти через:  Facebook Google Twitter Vk Yandex Mail.ru

Neutral Milk Hotel - Through My Tears - текст песни, таба, видео

Печатать
Просмотров: 81
Уроки эстрадного вокала в Санкт-Петербурге
Guitar 2 plays chords if playing with only 1 guitar simply replace
hammering 10 to 12 on III with an E chord.


(/) Slide Up  (\) Slide Down  (h) Hammer On

I
   Am
E|-----------0-12-12-12p10-10-10-10\8-8-8-8\7-7-7-7-8-8-7-5-|
B|---------1------------------------------------------------|
G|-------2--------------------------------------------------|
D|-----2----------------------------------------------------|
A|---0------------------------------------------------------|
E|-0--------------------------------------------------------|

II
  E                                      Am
E|-----------0-----------------------------------0-|
B|---------0-----------------------------------1---|
G|-------1-----------------------------------2-----|
D|-----2-------0-2-2--2-2-5-2--2-2---------2-------|
A|---2-----------------------------5-3-2-0---------|
E|-0-----------------------------------------------|

III
                                                          E  or
E|-12-12-12\10-10-10-10/15-15-15-15-17-17-15-15-12-12-10-(-----0)(10h12)
B|-------------------------------------------------------(----0-)(-----)
G|-------------------------------------------------------(---1--)(-----)
D|-------------------------------------------------------(--2---)(-----)
A|-------------------------------------------------------(-2----)(-----)
E|-------------------------------------------------------(0-----)(-----)

II
  E                                      Am
E|-----------0-----------------------------------0-|
B|---------0-----------------------------------1---|
G|-------1-----------------------------------2-----|
D|-----2-------0-2-2--2-2-5-2--2-2---------2-------|
A|---2-----------------------------5-3-2-0---------|
E|-0-----------------------------------------------|


Am                                                  E
Watch the wind blow your cigarette smoke through my window and out to the sky
Am                                                     E
               Am
this message sent, drilled into your heart but now the ink will fade before the night is 
through my dear



(if applies, second guitar strums chords in the background)

I
   Am
E|-----------0-12-12-12p10-10-10-10\8-8-8-8\7-7-7-7-8-8-7-5-|
B|---------1------------------------------------------------|
G|-------2--------------------------------------------------|
D|-----2----------------------------------------------------|
A|---0------------------------------------------------------|
E|-0--------------------------------------------------------|

II
  E                                      Am
E|-----------0-----------------------------------0-|
B|---------0-----------------------------------1---|
G|-------1-----------------------------------2-----|
D|-----2-------0-2-2--2-2-5-2--2-2---------2-------|
A|---2-----------------------------5-3-2-0---------|
E|-0-----------------------------------------------|

I
   Am
E|-----------0-12-12-12p10-10-10-10\8-8-8-8\7-7-7-7-8-8-7-5-|
B|---------1------------------------------------------------|
G|-------2--------------------------------------------------|
D|-----2----------------------------------------------------|
A|---0------------------------------------------------------|
E|-0--------------------------------------------------------|

II
  E                                      D
E|-----------0-----------------------------------2-|
B|---------0-----------------------------------3---|
G|-------1-----------------------------------2-----|
D|-----2-------0-2-2--2-2-5-2--2-2---------0-------|
A|---2-----------------------------5-3-2-0---------|
E|-0-----------------------------------------------|

D              Am                   E
Where were you when the cracks were forming
D          Am              E
Where were you when it all caved in
D        Am                 E
You were sleeping safe that morning
D           Am            E                                        Am
Holding insecurities that burrow underneath your skin and fade away

Am                                        E
All alone - another twisted moment's gone that will never pass this way again
Am                                                         E
And through it all I thought there'd be some shred of hope but faith I've found will do 
you in
Am                                                                    E
And all the words that build into a bridge of love between me and you will stumble,
crack and fail to fly
Am                                       E                                               
      D
And now my only one, where have you gone are you another heart that i must sing goodbye 
my dear

D              Am                   E
Where were you when the cracks were forming
D          Am              E
Where were you when it all caved in
D        Am                 E
You were sleeping safe that morning
D           Am            E                                        Am
Holding insecurities that burrow underneath your skin and fade away

Am                                                  E
Watch the wind blow your cigarette smoke through my window and out to the sky
Am                                                     E                                 
           Am
this message sent, drilled into your heart but now the ink will fade before the night is 
through my dear
Добавлено: 25.08.2013
Другие материалы по этой песне:
  • Аккорды и текст

Страница создана 25.08.2013
http://primanota.ru/neutral-milk-hotel/through-my-tears-chords.htm
Привет, Гость.
Предлагаем пройти революционный курс по гитаре.
Подарок от PrimaNota.Ru, забирай!