PrimaNota.ru - самый крупный в мире бесплатный архив песенных текстов, аккордов, табулатур и нот


Network - Joe Robot - аккорды и текст, таба, бас-таба, видео

Регистрация Запомнить меня
Войти через:  Facebook Google Twitter Vk Yandex Mail.ru

Network - Joe Robot - аккорды и текст, таба, бас-таба, видео

Печатать
Просмотров: 185
Joe Robot
Network
Title: Joe Robot
Artist: Network
Album: Money Money 2020

This is the first track off of the Network's (aka Green Day) album, Money
Money 2020. It's kinda different, no it's totally different than anything
done by the boys from Rodeo, but change is good.  Anyway, the song is short,
so the tab is too.

intro/verse

e|--------------------------------------|
B|--------------------------------------|
G|--------------------------------------|  
D|--------------------------------------|  
A|-----4--------4--------2--------2-----|
E|---5---3----5---3----3---5----3---5---|

chorus

e|--------------------------------------|
B|--------------------------------------|
G|---4-4-4-4--7-7-7-7-------------------|
D|---4-4-4-4--7-7-7-7--5-5-5-5-5-5-5-5--|  
A|---2-2-2-2--5-5-5-5--5-5-5-5-5-5-5-5--|	
E|---------------------3-3-3-3-3-3-3-3--|

ending

e|--------------------------------------|
B|--------------------------------------|
G|-7-7-6-6-5-5-4-4---7-6-5-4------------|
D|-7-7-6-6-5-5-4-4---7-6-5-4-7-6--------|
A|-5-5-4-4-3-3-2-2---5-4-3-2-7-6----4---|
E|---------------------------5-4--5---3-|

the breakdown...

intro  x 1
verse  x 3
chorus x 2
verse  x 2
chorus x 2
verse  x 2 with "Joe Robot" said over it
ending


It's pretty easy to play, so.... yeah, enjoy. If you've got any comments or
anything, write me at greenday@nc.rr.com.  Otherwise... this is goodbye.
     
Добавлено: 05.09.2013
Другие материалы по этой песне:
  • Аккорды и текст

Страница создана 26.02.2012
http://primanota.ru/network/joe-robot-chords.htm
Привет, Гость.
Предлагаем пройти революционный курс по гитаре.
Подарок от PrimaNota.Ru, забирай!