PrimaNota.ru - самый крупный в мире бесплатный архив песенных текстов, аккордов, табулатур и нот


Netsky - Come Alive - таба, видео

Регистрация Запомнить меня
Войти через:  Facebook Google Twitter Vk Yandex Mail.ru

Netsky - Come Alive - таба, видео

Печатать
Просмотров: 144
Авторы музыки: Boris Daenen
Авторы текста: Boris Daenen
----------------------------------------------------------------------------
                           Come Alive - Netsky
                         http://netskymusic.com/
----------------------------------------------------------------------------

Tabbed by: Epicnic

Check out http://www.youtube.com/watch?v=-6CCbeBvkCY for my own version
of this Drumstep/drum and bass song.

Tuning: standard (E A D G B E)

Intro (piano transcribed for guitar)
This is actually played an octave lower but since you can't quite hold a
I-III-V mini chord with the low F I wrote it an octave higher. It still
sounds good.

   F            G     Am
e|--------------------------|
B|-1------------3-----5-----|
G|-2------------4-----5-----|
D|-3----5h7h9-5-5-----7---5-|
A|--------------------------|
E|--------------------------|

Alternate (rock) version after the piano intro.
Heavy intro

   F5                              G5              A5
e|-------------------------------------------------------------------------|
B|-------------------------------------------------------------------------|
G|-------------------------------------------------------------------------|
D|-3---3-3-3-3-3-3-3-3-3-3---------5---5-5-5-5-5-5-7--7-7-7-7-7-7----------|
A|-3---3-3-3-3-3-3-3-3-3-3---------5---5-5-5-5-5-5-7--7-7-7-7-7-7----------|
E|-1---1-1-1-1-1-1-1-1-1-1-3h5h7-3-3---3-3-3-3-3-3-5--5-5-5-5-5-5-3--------|

Verse

   F5                              G5              A5
e|-------------------------------------------------------------------------|
B|-------------------------------------------------------------------------|
G|-------------------------------------------------------------------------|
D|-3-3-3-3-3-3-3-3-3-3-3-3-3-3-3-3-5-5-5-5-5-5-5-5-7-7-7-7-7-7-7-7-5-------|
A|-3-3-3-3-3-3-3-3-3-3-3-3-3-3-3-3-5-5-5-5-5-5-5-5-7-7-7-7-7-7-7-7-5-------|
E|-1-1-1-1-1-1-1-1-1-1-1-1-1-1-1-1-3-3-3-3-3-3-3-3-5-5-5-5-5-5-5-5-3-------|

Keytar bit on top of this riff (listen very close because it's way in the 
back of the mix but it builds to the chorus).

e|-12-8-10----12-8-10------|
B|---------10---------10---|
G|-------------------------|
D|-------------------------|
A|-------------------------|
E|-------------------------|

Just before the chorus the main riff stops at the F5 and keeps on repeating
it.

Chorus (Listen close for the right rhythm. The 2nd chord is played just
after the beat. Just listen for the standard dnb drop beat because that's
your cue to play the second chord)
   F5                 A5          E5
e|----------------------------------|
B|----------------------------------|
G|----------------------------------|
D|-3------3-----------7-----------2-|
A|-3------3-----------7-----------2-|
E|-1------1-----------5-----------0-|

Keytar bit on top of this riff (it's actually the same riff but this time
it's more prominent and harmonized to make it stand out more plus there's
a small detail different)

e|---------------------------|
B|---------------------------|
G|-9---5---7----5-9--5--7----|
D|------------7------------7-|
A|-7---3---5----3-7--3--5----|
E|------------5------------5-|
        * I played this part as two separate pieces on my recording I referred
          to in the description above. This was to prevent my fretboard fingers
          to be shredded by sliding them up and down in such a fast motion.

The chorus has a quieter piece in between it which just uses the same chords
as the chorus but the A5 chord is now played on the beat.

There's a different piano part on top of it.

e|--------------|
B|--------------|
G|--9--9-7-7-5--|
D|-10-10-9-9-7--|
A|--------------|
E|--------------|

After that some parts get repeated:
Chorus
Heavy Intro
Verse
Chorus

"Lifted" chorus. Just before the last normal chorus. The chorus gets played a
fifth higher.
   A#5               D5           A5
e|----------------------------------|
B|----------------------------------|
G|----------------------------------|
D|-8------8----------12-----------7-|
A|-8------6----------12-----------7-|
E|-6------6----------10-----------5-|

The keytar bit is also a bit different
e|-----------------------|
B|-----------------------|
G|-10-12-14-9s10-12-14-9-|
D|-----------------------|
A|-8--10-12-7s8--10-12-7-|
E|-----------------------|

The song ends with the normal chorus again.

Go check out riffaday.com for more of these. I'll tab some of my covers on
request. Just contact me on the site.
Добавлено: 14.10.2013
Другие материалы по этой песне:
  • Аккорды и текст

Страница создана 14.10.2013
http://primanota.ru/netsky/come-alive-chords.htm
Привет, Гость.
Предлагаем пройти революционный курс по гитаре.
Подарок от PrimaNota.Ru, забирай!