PrimaNota.ru - самый крупный в мире бесплатный архив песенных текстов, аккордов, табулатур и нот


Nervosa - Death - таба, видео

Регистрация Запомнить меня
Войти через:  Facebook Google Twitter Vk Yandex Mail.ru

Nervosa - Death - таба, видео

Печатать
Просмотров: 430
-------------------------------------------------------------------------------
                             Nervosa - Death
-------------------------------------------------------------------------------
Tabbed by:thegoatskull
E-mail:

Tuning:
verse 1 :
e|---------------------------------------------------------------------------|
B|---------------------------------------------------------------------------|
G|---------------------------------------------------------------------------|
D|---------------------------------------------------------------------------|
A|-8\7-7-7-8\7-7-7-8\7-7-7-5-5-4-4-------------------------------------------|
E|-6\5-5-5-6\5-5-5-6\5-5-5-3-3-2-2-------------------------------------------|
play 8 times

verse 2
e|---------------------------------------------------------------------------|
B|---------------------------------------------------------------------------|
G|---------------------------------------------------------------------------|
D|------2-------1---------2010-----------------------------------------------|
A|-----------------------------20103-----------------------------------------|
E|000000--000000--00000000---------------------------------------------------|
play 2 times

verse 3
e|---------------------------------------------------------------------------|
B|---------------------------------------------------------------------------|
G|---------------------------------------------------------------------------|
D|---------------------------------------------------------------------------|
A|---------------------------------------------------------------------------|
E|000000003020-0000000003010-000000003020-000000003010-----------------------|

chorus

e|---------------------------------------------------------------------------|
B|---------------------------------------------------------------------------|
G|---------------------------------------------------------------------------|
D|--------------------------------------12-11-10-----------------------------|
A|------------987-------------987----------------------3-2-1-----------------|
E|000000000000765-000000000000765-000000--------000000-----------------------|

e|---------------------------------------------------------------------------|
B|---------------------------------------------------------------------------|
G|---------------------------------------------------------------------------|
D|---------------------------------------------------------------------------|
A|----12-11-10-------3-2-1------------987-------------987--------------------|
E|0000--------000000------000000000000765-000000000000765--------------------|

solo
e|-7-10-9--79-10-7--5-6-5--14-15p14-14-15p14-14-15p14-14-15p14-15p14-15-14-12|
B|---------------------------------------------------------------------------|
G|---------------------------------------------------------------------------|
D|---------------------------------------------------------------------------|
A|---------------------------------------------------------------------------|
E|---------------------------------------------------------------------------|

e|-3-5--3-5--357-579-10/12-15-14-(-12-14-12-15--12times)-15-12-----------------|
B|-------------------------------------------T-------------------------------|
G|---------------------------------------------------------------------------|
D|---------------------------------------------------------------------------|
A|---------------------------------------------------------------------------|
E|---------------------------------------------------------------------------|
verse 1 4 times
verse 2 2 times
verse 3 1 time
chorus  1 time

outro
e|---------------------------------------------------------------------------|
B|---------------------------------------------------------------------------|
G|---------------------------------------------------------------------------|
D|---------------------------------------------------------------------------|
A|5\4-----5\4-----5\4-----5-7------------------------------------------------|
E|3\2-000-3\2-000-3\2-000-3-5------------------------------------------------|
8 times  with a litlle breake after the 4th time

This was my first Tab. I'm not sure in some things, especially in the solo but I hope the Tab helps
you to play the song.
I made the Tab by watching the live concert at the 30th march 2014.

I'm sorry for my bad english. I Hope you understand all that I said. 

************************************

| /   slide up
| \   slide down
| h   hammer-on
| p    pull-off
| ~   vibrato
| +   harmonic
| x   Mute note
| b   Bend
| pb  Pre-bend
| br  Bend release
| pbr Pre-bend release
| brb Bend release bend

************************************
Добавлено: 15.08.2015
Другие материалы по этой песне:
  • Аккорды и текст

Страница создана 15.08.2015
http://primanota.ru/nervosa/death-chords.htm
Привет, Гость.
Предлагаем пройти революционный курс по гитаре.
Подарок от PrimaNota.Ru, забирай!