PrimaNota.ru - самый крупный в мире бесплатный архив песенных текстов, аккордов, табулатур и нот


Nephew - Science Fiction Og Familien - таба, видео

Регистрация Запомнить меня
Войти через:  Facebook Google Twitter Vk Yandex Mail.ru

Nephew - Science Fiction Og Familien - таба, видео

Печатать
Просмотров: 104
    ______________________________
   / Nephew                      / "En sang om Gud ... find selv ud af resten!"
  / Science Fiction & Familien  /  skrev Nephew om meningen med sangen i Gaffa.
 / Interkom Kom Ind            /  Jeg kan ikke finde ud af hvad den handler om
/_____________________________/  selv, så dette er det bedste clue jeg kan give.

Der bliver burgt en solid distortion for at opnå en så røvsparkende
kraftfuld lyd selvom der kun bliver spillet på en streng af gangen.
Oveni bruger Kristian Riis en Delay pedal der gentager de to sidste
toner der er spillet. De er markerede i paranteserne. Hvis du ikke
har mulighed for noget delay, kan du jo bare spillet dem selv!


Intro: (hovedriffet) 2x
e|-------------------------------------------------------|
B|-------------------------------------------------------|
G|-------------------------------------------------------|
D|------------------------------------------------3-5\---|
A|-------------------------3-3-3--3-6-6-5-6-(5-6)--------|
E|-3-3-3---3-3-1-3-(1-3)---------------------------------|

  -------------------------------------------------------|
  -------------------------------------------------------|
  -------------------------------------------------------|
  -------------------------------------------------------|
  -----------------------3-3-3--3-6-6-5-6-(5-6)----------|
  -3-3---3-3-1-3-(1-3)--------------------------1-3------|

1st Verse:        2nd Verse:
  ---------------  ---------------|
  ---------------  ---------------|
  ---------------  ---------------|
  ------3---5\---  ------3-5\-----|
  ---------------  ---------------|
  ---------------  ---------------|
...hvad jeg skal.....som rigid...

Pre-Chorus: 2x
  ---------------------------------------------------|
  ---------------------------------------------------|
  ---------------------------------------------------|
  -------------------------3-5\----------------------|
  -1-1-1---1-5-5-3-5-(3-5)---------------------------|
  ------------------------------3-3--3-3-3---3-1-----|

Chorus: 2x
  ------------------------------------------|
  ------------------------------------------|
  -3-3-3-3-3-3-3-3-3-3-3-3-3/12-12-12-12\---| 2x
  ------------------------------------------|
  ------------------------------------------|
  ------------------------------------------|

  ----------------------------------------------------------------------------|
  ----------------------------------------------------------------------------|
  -3-3-3-3-3-3-3-3-3-3-3-3-3-3-3-3--------------------------------------------|
  ---------------------------------4-4-4-4-4-4-4-10-10-10-10-10-10-10-8-10-8--|
  ----------------------------------------------------------------------------|
  ----------------------------------------------------------------------------|

  så hovedriffet 1x

2nd Verse

Pre-Chorus: 2x

Chorus: 2x

Solo: (over omkvæd)
Soloen bliver spillet af keyboardet, men sådan kan det gøres på guitar:

  -6-6-6-6-6-6-6/8--------------/15-15-15-15----------|
  -8-8-8-8-8-8-8/11b12r11b12r11-----------------------|
  ----------------------------------------------------| 2x
  ----------------------------------------------------|
  ----------------------------------------------------|
  ----------------------------------------------------|

  -6-6-6-6-6-6-6-6-6-6-6-6---------------8-8-8-8-8-8-6-8-6-----|
  -8-8-8-8-8-8-8-8-8-8-8-8-7-7-7-7-7-7-7-----------------------|
  -------------------------------------------------------------|
  -------------------------------------------------------------|
  -------------------------------------------------------------|
  -------------------------------------------------------------|

Bridge:
...hvem der bare ku klare sig med hjælp fra sig selv...
              ...hvem der bare   ku klare   sig selv...

keybordet spiller hovedriffet, med de her guitarfills oveni:

  -----------------------------------------|
  ---------------------------6-8\-(6-8\)---|
  -----------------7-8-(7-8)---------------| 2x
  --3-5\-(3-5\)----------------------------|
  -----------------------------------------|
  -----------------------------------------|

Outro:
  hovedriffet 1x
  Pre-Chorus 2x
  slut på:

-------------------------|
-------------------------|
-------------------------|
-------------------------|
-------------------------|
-3-3-3---3-3-3-3-1---3---|

  YES SIR DU FØRER I MIT KRIGSSLAG /
  DU SIGER HVAD JEG SKAL /
  DU REDER MIG FRA BAGSLAG /
  MED BOGSTAVER OG TAL //
  YES SIR DU SMADRER MINE LÆNKER /
  BEFALER TIL ATTACK /
  DU KVADRE DERES BANKER /
  BETALER DERES CRACK //
  HVEM DER BARE KU KLARE SIG MED HJÆLP
  FRA SIG SELV /
  HVEM DER BARE KU KLARE SIG MED HJÆLP
  FRA SIG SELV /
  HVEM DER BARE KU KLARE SIG MED HJÆLP
  FRA SCIENCE FICTION OG FAMILIEN OG
  VENNER OG VENINDER NÅR DET GJALDT //
  YES SIR JEG KRÆVER HVAD DU SKÆNKER /
  FORVALTER SOM RIGID /
  JEG BLIVER HVAD JEG TÆNKER /
  MEN HEY DU FINDES IKKE EN SKID //
  SÅ PLUDSELIG BLIR JEG ANVIST /
  ET SØM DER KAN SLÅ MIG NED /
  SÅ VISER DU DIT ANSIGT /
  OG FIXER MIG MED FRED //
  HVEM DER BARE KU KLARE SIG MED HJÆLP
  FRA SIG SELV /
  HVEM DER BARE KU KLARE SIG MED HJÆLP
  FRA SIG SELV /
  HVEM DER BARE KU KLARE SIG MED HJÆLP
  FRA SCIENCE FICTION OG FAMILIEN OG
  VENNER OG VENINDER NÅR DET GJALDT //
  OH SIR /
  SÅ SIG MIG HVAD JEG SKAL /
  OG HVOR JEG SKAL GÅ HEN /
  HVOR ER HJEM /
  FORKLAR EN FISK HVAD VAND ER /
  HVOR ER HJEM

- 28th /October /06
Just mail me at Maitinin@gmail.com with questions, comments and corrections!
Добавлено: 07.06.2012
Другие материалы по этой песне:
  • Аккорды и текст

Страница создана 07.06.2012
http://primanota.ru/nephew/science-fiction-og-familien-chords.htm
Привет, Гость.
Предлагаем пройти революционный курс по гитаре.
Подарок от PrimaNota.Ru, забирай!