PrimaNota.ru - самый крупный в мире бесплатный архив песенных текстов, аккордов, табулатур и нот


Nephew - Klokken 25 - таба, видео

Регистрация Запомнить меня
Войти через:  Facebook Google Twitter Vk Yandex Mail.ru

Nephew - Klokken 25 - таба, видео

Печатать
Просмотров: 99
Уроки эстрадного вокала в Санкт-Петербурге
-------------------------------------------------------------------------------
                             Klokken 25 - Nephew
-------------------------------------------------------------------------------
Tabbed by: Bee-Ay


Tuning: C-G-C-F-A-D

Stem din guitar en tone ned, og oveni det, så stemmer du den lave E ENDNU en tone ned!


Omkvæd
D|------------------------------|----------------------------|
A|------------------------------|----------------------------|
F|*-----------------------------|---------------------------*|
C|*-5----5-0--3-0-8----8-0--3-0-|-5----5-0--3-0-8----8-0--3-*|
G|--5----5-0--3-0-8----8-0--3-0-|-5----5-0--3-0-8----8-0--3--|
C|--5----5-0--3-0-8----8-0--3-0-|-5----5-0--3-0-8----8-0--3--|


Ét-slaget spilles med, når verset starter
D|---|
A|---|
F|---|
C|-5-|
G|-5-|
C|-5-|



Optakt op til omkvædene, hvor slagene spilles hårdere og hårdere 
D|-----------------------------------------------------|
A|-----------------------------------------------------|
F|-----------------------------------------------------|
C|-----------------------------------------------------|
G|-0~-0~-0~-0~-0~-0~-0~-0~-0~-0~-0~-0~-0~-0~~-0~~-0~~~-|
C|-0~-0~-0-~0~-0~-0~-0~-0~-0~-0~-0~-0~-0~-0~~-0~~-0~~~-|



I mellemspillet op til 2. vers spiller guitar 2 dette
D|----------------------------------------------------------------------------|
A|----------------------------------------------------------------------------|
F|-12--12-12-12--12/15--15-15-15--15/12--12-12-12--12/15--15-15/14--14/12--12-|
C|----------------------------------------------------------------------------|
G|----------------------------------------------------------------------------|
C|----------------------------------------------------------------------------|


Break i 2. vers (1.40 ca) spiller en guitar dette
D|-5~----8~---6~----13~--|
A|-6~----8~---8~----10~--|
F|-5~----5~---7~----10~--|
C|-----------------------|
G|-----------------------|
C|-----------------------|


Guitar 2 spiller denne figur (den samme som vokalmelodien) i breaket op til de alternative omkvæd
D|---------------------------------------------------------------------------|
A|---------------------------------------------------------------------------|
F|-12--12--12-12-12-12/10-10-10--10-10-10-10/7--7-7--7-7-7-7--8-7-8-7--12-12-|
C|-x---x---x--x--x--x--x--x--x---x--x--x--x--x--x-x--x-x-x-x--x-x-x-x--x--x--|
G|-10--10--10-10-10-10/8--8--8---8--8--8--8/-5--5-5--5-5-5-5--6-5-6-5--10-10-|
C|---------------------------------------------------------------------------|

Добавлено: 12.05.2016
Другие материалы по этой песне:
  • Аккорды и текст

Страница создана 12.05.2016
http://primanota.ru/nephew/klokken-25-chords.htm
Привет, Гость.
Предлагаем пройти революционный курс по гитаре.
Подарок от PrimaNota.Ru, забирай!