PrimaNota.ru - самый крупный в мире бесплатный архив песенных текстов, аккордов, табулатур и нот


Nephew - Hurra - текст песни, таба, видео

Регистрация Запомнить меня
Войти через:  Facebook Google Twitter Vk Yandex Mail.ru

Nephew - Hurra - текст песни, таба, видео

Печатать
Просмотров: 240
This is the last part of the song "Hurra" from "DanmarkDenmark"

e|-----1----1---1-----1-----1---1-----1-----1---1-----1-----5---5---|
B|------------------------------------------------------------------|
G|-2-2--2-2---2---0-0---0-0---0---3-3---3-3---3---5-5---5-5---5-----|
D|------------------------------------------------------------------| x9
A|------------------------------------------------------------------|
E|------------------------------------------------------------------|

e|-----1----1---1-----1-----1---1-----1-----1---1-----1-----5---5---|
B|------------------------------------------------------------------|
G|-2-2--2-2---2---0-0---0-0---0---3-3---3-3---3---5-5---5-5---5---2-|
D|------------------------------------------------------------------|
A|------------------------------------------------------------------|
E|------------------------------------------------------------------|

^ This is repeated during the whole song, but you can also play it like this with the
on guitar... It sounds good either way (:

e|-----1----1---1-----1-----1---1-----1-----1---1-----1-----5---5---|
B|------------------------------------------------------------------|
G|-2-2--2-2---2---0-0---0-0---0---3-3---3-3---3---5-5---5-5---5-----|
D|------------------------------------------------------------------| x2
A|------------------------------------------------------------------|
E|------------------------------------------------------------------|

e|--------------------------------------|
B|-------3-3-------------3-3------------|
G|-----0-----3-2-0-2-3-0-----3-2-0-2----|
D|-0---------------------------------3--| x3 2 2
A|--------------------------------------|
E|--------------------------------------|

(While Simon is singing, you can play either the first part twice or the second part
- the second part isn't actually played here, but it sounds good if you play along with 
lyrics.)

Jeg regner med, at det blir' rart
At flegne ud når alt går galt
Jeg regner med, at det blir' rart
At flegne ud når alt går galt

PLAY SECOND PART TWICE

e|-----1----1---1-----1-----1---1-----1-----1---1-----1-----5---5---|
B|------------------------------------------------------------------|
G|-2-2--2-2---2---0-0---0-0---0---3-3---3-3---3---5-5---5-5---5---2-|
D|------------------------------------------------------------------|
A|------------------------------------------------------------------|
E|------------------------------------------------------------------|
Добавлено: 18.04.2012
Другие материалы по этой песне:
  • Аккорды и текст

Страница создана 27.02.2012
http://primanota.ru/nephew/hurra-chords.htm
Привет, Гость.
Предлагаем пройти революционный курс по гитаре.
Подарок от PrimaNota.Ru, забирай!