PrimaNota.ru - самый крупный в мире бесплатный архив песенных текстов, аккордов, табулатур и нот


Nephew - 007 Is Also Gonna Die - таба, бас-таба, видео

Регистрация Запомнить меня
Войти через:  Facebook Google Twitter Vk Yandex Mail.ru

Nephew - 007 Is Also Gonna Die - таба, бас-таба, видео

Печатать
Просмотров: 209
----------------------------------------------------------------------------
                        007 Is Also Gonna Die - Nephew
----------------------------------------------------------------------------
Tabbed by: Bee-Ay
Email: Leviathan_ben@hotmail.com

Tuning: Standard.

HE IS BOUND TO DIIIIIIIIE!


Sangen er mest skruget sammen med Synthesizere.
Guitaren eksplodere først i bridgen.

Intro/Vers: Med rumklang og delay.
e|-------------------------------------------|
B|-------------------------------------------|
G|*-----------------------------------------*|
D|*--------------------------------------2~-*|
A|-------------------------------------------|
E|--3-3-3--3p0--0-0--------3-3-3--3p0--0-----|


Fill: Med rumklang og nøje finpudset Delay, som gentager
alle de mange "slag" man hører:
e|--------------------------------------------|
B|--13-13-13-12-12-12-10-10-10-8-8-8-7-7-5-5--|
G|*------------------------------------------*|
D|*------------------------------------------*|
A|--------------------------------------------|
E|--------------------------------------------|


Før-kvæd: "Da-da-dam-dam-dada-dam".
Guitaren sniger sig op lige før omkvædet med den her tone,
som bliver spillet hårdere og hårdere:
e|---------------------------------------------------------------|
B|--5-5-5-5-5-5-5-5-5-5-5-5-5-5-5-5-5-5-5-5-5-5-5-5-5-5-5-5-5-5--|
G|*-------------------------------------------------------------*|
D|*-------------------------------------------------------------*|
A|---------------------------------------------------------------|
E|---------------------------------------------------------------|


Omkvæd: Med Distortion. Stringen er dæmpet (Palm Muted)
e|------------------------------------------------------------------|
B|------------------------------------------------------------------|
G|*-----------------------------------------------------------------|
D|*-7/9-9-9-9-9-9---------------------------------------------------|
A|--5/7-7-7-7-7-7//14-14-14-14-14-14-14-14-14-14-14-14-14-14-14-14--|
E|------------------------------------------------------------------|
pm:                 .  .  .  .  .  .  .  .  .  .  .  .  .  .  .  .


e|----------------------------|
B|----------------------------|
G|----------------------------|
D|----------------------------|
A|-15-15-15-15-15-15-15-15-15-|
E|----------------------------|
pm:.  .  .  .  .  .  .  .  .

e|----------------------------------------------------------------------|
B|----------------------------------------------------------------------|
G|----------------------------------------------------------------------|
D|----------------------------------------------------------------------|
A|-14-14-14-14-14-14-14-14-14-14-14-14-14-14-14-14-14-14-14-14-14-14-14-|
E|----------------------------------------------------------------------|
pm .  .  .  .  .  .  .  .  .  .  .  .  .  .  .  .  .  .  .  .  .  .  .


e|-----------------------------|
B|-----------------------------|
G|----------------------------*|
D|----------------------------*|
A|-15-15-15-15-15-15-15-15-15--|
E|-----------------------------|
pm:.  .  .  .  .  .  .  .  .

Bridge: Med MEGET distortion!
e|--------------------------------------------------------------------|
B|--------------------------------------------------------------------|
G|*-------------------------------------------------------------------|
D|*-7/9-9-9-9-9--7/9-9-9-9-9-9-9-9-9--9/7-7-7-7-7-7-7-4-4-4-4-4-4-4-4-|
A|--5/7-7-7-7-7--5/7-7-7-7-7-7-7-7-7--7/5-5-5-5-5-5-5-2-2-2-2-2-2-2-2-|
E|--------------------------------------------------------------------|

e|----------------------------------------------------------------|
B|----------------------------------------------------------------|
G|-------------7-7-7-7-7-7-7-7-7---------------------------------*|
D|-7/9-9-9-9-9-5-5-5-5-5-5-5-5-5-4-4-4-4-4-4-4-4-4-4-4-4-4-4-4-4-*|
A|-5/7-7-7-7-7-5-5-5-5-5-5-5-5-5-2-2-2-2-2-2-2-2-2-2-2-2-2-2-2-2--|
E|----------------------------------------------------------------|


HEY HEEEEY!

Wåh-wååååh:
e|--------------------------------------------------------------------|
B|--------------------------------------------------------------------|
G|*-------------------------------------------------------------------|
D|*-7/9-9-9-9-9--7/9-9-9-9-9-9-9-9-9--9/7-7-7-7-7-7-7-4-4-4-4-4-4-4-4-|
A|--5/7-7-7-7-7--5/7-7-7-7-7-7-7-7-7--7/5-5-5-5-5-5-5-2-2-2-2-2-2-2-2-|
E|--------------------------------------------------------------------|

e|------------------------------------------------------------------------------------|
B|------------------------------------------------------------------------------------|
G|-4-4-4-4-4-4-4-4-7-7-7-7-7-7-7-7-7-11-11-11-11-11-11-11-11-11-11-11-11-11-11-11-11-*|
D|-2-2-2-2-2-2-2-2-5-5-5-5-5-5-5-5-5-9--9--9--9--9--9--9--9--9--9--9--9--9--9--9--9--*|
A|-2-2-2-2-2-2-2-2-5-5-5-5-5-5-5-5-5-9--9--9--9--9--9--9--9--9--9--9--9--9--9--9--9---|
E|------------------------------------------------------------------------------------|


Outro:
e|-----------------------------|
B|-----------------------------|
G|-----------------------------|
D|-7/9-9-9---7/9-9-9---7/9-9//-|
A|-5/7-7-7---5/7-7-7---5/7-7//-|
E|-5/7-7-7---5/7-7-7---5/7-7//-|


Ganske ligetil, og godt nummer. ROCK ON!!
Добавлено: 22.07.2012
Другие материалы по этой песне:

Страница создана 27.02.2012
http://primanota.ru/nephew/007-is-also-gonna-die-chords.htm
Привет, Гость.
Предлагаем пройти революционный курс по гитаре.
Подарок от PrimaNota.Ru, забирай!