PrimaNota.ru - самый крупный в мире бесплатный архив песенных текстов, аккордов, табулатур и нот


Немного Нервно - Медленный сон - аккорды и текст, видео

Регистрация Запомнить меня
Войти через:  Facebook Google Twitter Vk Yandex Mail.ru

Немного Нервно - Медленный сон - аккорды и текст, видео

Печатать
Просмотров: 293
Уроки эстрадного вокала в Санкт-Петербурге
Медленный сон
Немного Нервно
Вступление и куплеты:
Em Am
E--0-------3--------2--------0----------0-------3--------2--------0-------
B----0--------0--------0--------0---------1--------1--------1---------1---
G------0--------0--------0--------0---------2--------2--------2---------2-
D--------------------------------------------------2------------------2---
A-----------2-----------------2----------0-----------------0--------------
E--0-----------------0----------------------------------------------------

Мне снятся белые стены,
Красные камни,
Следы на песке.
Мне снятся огни и кресты,
Три года в этой пустыне,
Три года крестного хода,
И руки пусты.

Em G C G Am
E---0--------0----------3---2-------------------------0------------------------------
B------0--------0---------0---0--3----3------3---------1-------3----------1----------
G---------0--------0----------------0-----0-----0----------0-------0----------2------
D---------------------------------------------0-----0-------------------0----------2-
A------------------------2------------------------------3---------------------0------
E---0------------------------------------3-------------------------3-----------------
Мой... Медленный сон... О земле... святой, святой, да не 

Em
той
Em
Твой
Em G
Медленный сон,
C G Am Em
О любви земной, да не со мной

Мой
Медленный сон, 
О земле святой, святой, да не той
Твой
Медленный сон,
О любви земной, да не со мной

Проигрыш: Am Em

Мне быть бы в твоем сне,
Там, где звон и снег
До самых крыш.
Здесь
Всё по одной цене,
Святой крест и твой смех,
Да белые стены взлетают выше,
Я так далеко, даже когда ты спишь.

Медленный сон 
О земле святой, святой, да не той
Твой
Медленный сон,
О любви земной, да не со мно-о-

ой,
Медленный сон,
О пути домой,
Сон, да не мой.
Твой 
Медленный сон
О любви земной, да не со мной.
Добавлено: 22.09.2015
Другие материалы по этой песне:
  • Аккорды и текст

Страница создана 22.09.2015
http://primanota.ru/nemnogo-nervno/medlennyi-son-chords.htm
Привет, Гость.
Предлагаем пройти революционный курс по гитаре.
Подарок от PrimaNota.Ru, забирай!