PrimaNota.ru - самый крупный в мире бесплатный архив песенных текстов, аккордов, табулатур и нот


Nemesis - Obocheton - таба, видео

Регистрация Запомнить меня
Войти через:  Facebook Google Twitter Vk Yandex Mail.ru

Nemesis - Obocheton - таба, видео

Печатать
Просмотров: 72
Obocheton Tabs by Nemesis

Standard Tuning
No Capo
Chords used: Em, C, G, D, A, Bm, Em7, Cadd9, Dsus2

Intro:
e|--------------------------------------|-------------------------------|
B|--------------------------------------|-------------------------------|
G|--------------------------------------|-------------------------------|
D|--------------------------------------|-------------------------------|
A|--------------------------------------|-------------------------------|
E|-12~~/0-0-0-0--3-0-0--3-0-0-3-0--5-3--|-0-0-0-0--3-0-0--3-0-0-3-0--5-3|

e|---------------------------------|-----------------------3------3-----|
B|---------------------------------|-----------------------3------2-----|
G|---------------------------------|-----------------------0------3-----|
D|---------------------------------|----------5--7---------0------0-----|
A|---------------------------------|---------------5--7----2------x-----|
E|-0-0-0-0--3-0-0--3-0-0-3-0--5-3--|-0-0-0-0---------------3------x-----|
  Em                                Em
e|---------------------------------|------------------------------------|
B|---------------------------------|------------------------------------|
G|---------------------------------|------------------------------------|
D|-2-------5-----------------------|-2-------5--------------------------|
A|-2--5--7---7--5------------------|-2--5--7---7--5---------------------|
E|-0--------------7--6—5--3*------|-0--------------7--6—5--3*-----------|
  Em                                Em              G      D
e|---------------------------------|-------------------------------|
B|---------------------------------|-------------------------------|
G|---------------------------------|-----------------------7-------|
D|-2-------5-----------------------|-2--------------5------7-------|
A|-2--5--7---7--5------------------|-2--5--7-7------5------5-------|
E|-0--------------7--6—5--3*-------|-0--------------3------x-------|
Verse 1:
  Em                         C          G
e|-0---0------x---x---x---------------------------------------------|
B|-0---0------x---x---x---------------------------------------------|
G|-0---0------x---x---x------5---5----------------------------------|
D|-2---2------x---x---x------5---5------5---5-----------------------|
A|-2---2------x---x---x------3---3------5---5-----------3-----3--5--|
E|-0---0------x---x---x------x---x------3---3-----3--5-----5--------|
Binidro prohor ,
  Em                         C          G
e|-0---0------x---x---x---------------------------------------------|
B|-0---0------x---x---x---------------------------------------------|
G|-0---0------x---x---x------5---5----------------------------------|
D|-2---2------x---x---x------5---5------5---5-----------------------|
A|-2---2------x---x---x------3---3------5---5-----------5-----5--7--|
E|-0---0------x---x---x------x---x------3---3-----5--7-----7--------|
Ami hotashay

  Em   Bm                    C          G
e|-0----------x---x---x---------------------------------------------|
B|-0----------x---x---x---------------------------------------------|
G|-0---4------x---x---x------5---5----------------------------------|
D|-2---2------x---x---x------5---5------5---5-----------------------|
A|-2---2------x---x---x------3---3------5---5-----------3-----3--5--|
E|-0---0------x---x---x------x---x------3---3-----3--5-----5--------|
Jacchi eka
  Em                         C          G
e|-0----------x---x---x---------------------------------------------|
B|-0----------x---x---x---------------------------------------------|
G|-0---4------x---x---x------5---5----------------------------------|
D|-2---2------x---x---x------5---5------5---5-----------------------|
A|-2---2------x---x---x------3---3------5---5-----------5-----5--7--|
E|-0---0------x---x---x------x---x------3---3-----5--7-----7--------|
Kon ojanay

Chorus 1:
   C                      D     C                      D
e|------------3~~~~--------------|------------3~~~~-------------------|
B|----------3~~~~~~3~~-----------|----------3~~~~~~3~~----------------|
G|-5------5~~~~~~~~~~~5------5---|-5------5~~~~~~~~~~~5------5----7---|
D|-5~~~~~~~~~~~~~~~~~~-------5---|-5~~~~~~~~~~~~~~~~~~-------5--------|
A|-3~~~~~~~~~~~~~~~~~~-------7---|-3~~~~~~~~~~~~~~~~~~-------7--------|
E|-x-------------------------x---|-x-------------------------x--------|
Pichone fele shob smritigulo ami ojanay





  Em                                Em
e|---------------------------------|----------------------------------|
B|---------------------------------|----------------------------------|
G|---------------------------------|----------------------------------|
D|-2-------5-----------------------|-2-------5------------------------|
A|-2--5--7---7--5------------------|-2--5--7---7--5-------------------|
E|-0--------------7--6--5--3-------|-0--------------7--6--5--3--------|
  Em                                Em              G      D
e|---------------------------------|-------------------------------|
B|---------------------------------|-------------------------------|
G|---------------------------------|-----------------------7-------|
D|-2-------5-----------------------|-2--------------5------7-------|
A|-2--5--7---7--5------------------|-2--5--7-7------5------5-------|
E|-0--------------7--6--5--3-------|-0--------------3------x-------|
Verse 2:
  Em                         C          G
e|-0---0------x---x---x---------------------------------------------|
B|-0---0------x---x---x---------------------------------------------|
G|-0---0------x---x---x------5---5----------------------------------|
D|-2---2------x---x---x------5---5------5---5-----------------------|
A|-2---2------x---x---x------3---3------5---5-----------3-----3--5--|
E|-0---0------x---x---x------x---x------3---3-----3--5-----5--------|
Bhabnagulo jeno
  Em                         C          G
e|-0---0------x---x---x---------------------------------------------|
B|-0---0------x---x---x---------------------------------------------|
G|-0---0------x---x---x------5---5----------------------------------|
D|-2---2------x---x---x------5---5------5---5-----------------------|
A|-2---2------x---x---x------3---3------5---5-----------5-----5--7--|
E|-0---0------x---x---x------x---x------3---3-----5--7-----7--------|
Aaj mayamoy

  Em   Bm                    C          G
e|-0---0------x---x---x---------------------------------------------|
B|-0---0------x---x---x---------------------------------------------|
G|-0---0------x---x---x------5---5----------------------------------|
D|-2---2------x---x---x------5---5------5---5-----------------------|
A|-2---2------x---x---x------3---3------5---5-----------3-----3--5--|
E|-0---0------x---x---x------x---x------3---3-----3--5-----5--------|
Kolponatei

  Em  Bm                     C          G
e|-0---0------x---x---x--------------------------------------------------|
B|-0---0------x---x---x--------------------------------------------------|
G|-0---0------x---x---x------5---5--------------------------------7--9---|
D|-2---2------x---x---x------5---5------5---5----------------7--9--------|
A|-2---2------x---x---x------3---3------5---5-----------5--7-------------|
E|-0---0------x---x---x------x---x------3---3-----5---7------------------|
Jeno thomke roy
Chorus 2:
Em           C         G        A
Chetona mor bishonnotay
Em         C         G          A
Ekaki jeno koshto pay
Em         C         G          A
Adhare jeno oshoreeri
Em         C         G          A
Haat bariye dake amay
C                     D
Chutche aaj kono ojanay
C                  D
Kolponata jeno thomke roy

  Em                                Em
e|---------------------------------|----------------------------------|
B|---------------------------------|----------------------------------|
G|---------------------------------|----------------------------------|
D|-2-------5-----------------------|-2-------5------------------------|
A|-2--5--7---7--5------------------|-2--5--7---7--5-------------------|
E|-0--------------7--6--5--3-------|-0--------------7--6--5--3--------|
  Em                                Em              G      D
e|---------------------------------|----------------3------3-------|
B|---------------------------------|----------------3------2-------|
G|---------------------------------|----------------0------3-------|
D|-2-------5-----------------------|-2--------------0------0-------|
A|-2--5--7---7--5------------------|-2--5--7-7------2------x-------|
E|-0--------------7--6--5--3-------|-0--------------3------x-------|
Verse 3:
Em       C              G          D
Kolppona ar bastobota
Em       C              G          D
Milemishe ekakar
Em       C              G          D
Onubhutir protiniyoto
Em       C              G          D
Notun kono abishkar
Em       C              G          D
Shomoy jeno bishonnotay
Em       C              G          D
Osthir aaj tar goti
Em       C              G          D
Shukh dukkho eki shathe
Em       C              G          D
Mishro ek onubhuti
Bridge:
Em       D     G         C         D
Tobuo adhar
Em       D     G         C         Bm
Rakhe ghire ei amay
Em       D     G         C         D
Chutchi ami
Em       D     G         C         Bm
Pother shesh kothay
Am
Charidik shobdohin
Bm      C
Ononto oshim
Bm      Am
Ujjol adharer majhe
Bm      C                        Bm
Kayahin….
**Harmonic  ♦  - 5th fret of G string**

e|----------------------------------|-----------------------------------|
B|----------------------------------|-----------------------------------|
G|----------------------------------|-----------------------------------|
D|----------------------------------|-----------------------------------|
A|----------------------------------|-----------------------------------|
E|--0-0-0-0--3-0-0--3-0-0-3-0--5-3--|--0-0-0-0--3-0-0--3-0-0-3-0--5-3---|

e|----------------------------------|------------------------3------3---|
B|----------------------------------|------------------------3------2---|
G|----------------------------------|------------------------0------3---|
D|----------------------------------|-----------5--7---------0------0---|
A|----------------------------------|----------------5--7----2------x---|
E|--0-0-0-0--3-0-0--3-0-0-3-0--5-3--|--0-0-0-0---------------3------x---|


Solo:
Em  C  G  D     (4x)
C   D           (2x)

  Em                                Em
e|---------------------------------|----------------------------------|
B|---------------------------------|----------------------------------|
G|---------------------------------|----------------------------------|
D|-2-------5-----------------------|-2-------5------------------------|
A|-2--5--7---7--5------------------|-2--5--7---7--5-------------------|
E|-0--------------7--6--5--3-------|-0--------------7--6--5--3--------|
  Em                                Em              G      D
e|---------------------------------|-------------------------------|
B|---------------------------------|-------------------------------|
G|---------------------------------|-----------------------7-------|
D|-2-------5-----------------------|-2--------------5------7-------|
A|-2--5--7---7--5------------------|-2--5--7-7------5------5-------|
E|-0--------------7--6--5--3-------|-0--------------3------x-------|
Last Verse:
Em    C    G    D
Kolppona ar bastobota
Em    C    G    D
Milemishe ekakar
Em    C    G    D
Onubhutir protiniyoto
Em    C    G    D
Notun kono abishkar
Harmonized vocal:
Em7    Cadd9    G    Dsus2
Shomoy jeno bishonnotay
Em7    Cadd9    G    Dsus2
Osthir aaj tar goti
Em7    Cadd9    G    Dsus2
Shukh dukkho eki shathe
Em7    Cadd9    G    Dsus2
Mishro ek onubhuti

Outro:
Em7 – Cadd9 – G – Dsus2


Solo:
  Em   C        G     D                        Em           C
e|-10~~~~~~~10~~~~10---10-------------|--x----------------x-----------------|
B|-10**~~~~~~~~~~---12----9-12~~~~~9--|--x--12-12-12-12---x--13-13-13--13---|
G|-9**~~~~~~~~~~~---------------------|--x---12-12-12-12---x--12-12-12--12--|
D|------------------------------------|-------------------------------------|
A|------------------------------------|-------------------------------------|
E|------------------------------------|-------------------------------------|
   G              D
e|---x-------------x-----------------------|
B|---x-------------x-----------------------|
G|---x---12-12-12--x--11-11-11-------------|
D|---x----12-12-12--x--12-12-12-------14---|
A|-----------------------------------------|
E|-----------------------------------------|
   Em        C           G          D
e|-15**--15**---15v--14v-------14-12----12-------------------------|
B|-----------------------------------15----15~~~~13-12----12----12-|
G|-----------------------------------------------------14----14----|
D|-----------------------------------------------------------------|
A|-----------------------------------------------------------------|
E|-----------------------------------------------------------------|
  Em      C                                 G               D
e|----12-10---------12-10-----------------x---------------------------------|
B|-12----12-----12-----12-----12--10--9~~~x---------------------------------|
G|-----------14------------14-------------x-14-14-14-xx-12-xx-11-11-11---12~|
D|----------------------------------------x-12-12-12-xx-12-xx-12-12-12------|
A|--------------------------------------------------------------------------|
E|--------------------------------------------------------------------------|
   C                                   D
e|-15-12----14-12----15-12----14-12----15~|-19-15----17-15----19-15----17-15-----19~~|
B|-------13-------13-------13-------13----|-------15-------15-------15-------15------|
G|----------------------------------------|------------------------------------------|
D|----------------------------------------|------------------------------------------|
A|----------------------------------------|------------------------------------------|
E|----------------------------------------|------------------------------------------|
   C                                   D
e|-15-12----14-12----15-12----14-12----15~|-19-------17-------19-------17--------20-|
B|-------13-------13-------13-------13----|----15-15----15-15----15-15----15-15-----|
G|----------------------------------------|-----------------------------------------|
D|----------------------------------------|-----------------------------------------|
A|----------------------------------------|-----------------------------------------|
E|----------------------------------------|-----------------------------------------|


e|-20-19-17-19-20-20--20*--20*--20*~~~~~10---------------xx---------------|
B|----------------------------------------10*-10-10*-----xx---------------|
G|--------------------------------------------------12---xx--14-----------|
D|----------------------------------------------------14-xx---14----------|
A|------------------------------------------------------------------------|
E|------------------------------------------------------------------------|
e|------------------------------------------------------------------------|
B|----------------------------------12------------------------------------|
G|-12--12-14--12--12-14-14--16-12-----------------------------------------|
D|-12--12-14--12--12-14-14--16-12-----------------------------------------|
A|------------------------------------------------------------------------|
E|------------------------------------------------------------------------|
e|----------------------------15—15*full-15-12----12--10*full////10~~~~---|
B|-17-15-12-17-15-12-17-15-12------------------15-------------------------|
G|------------------------------------------------------------------------|
D|------------------------------------------------------------------------|
A|------------------------------------------------------------------------|
E|------------------------------------------------------------------------|

Last line of Verse 1 of bridge:
e|--------♦5------------------------------|
B|-----------♦5---------------------------|
G|--♦5-----------♦5-----------------|
D|-----♦5------------♦5-------------|
A|----------------------♦5----------------|
E|-------------------------♦5-------------|
Pother Shesh kothay...

Harmonized vocal solo:
e|-10-10-10**-10*-10*-10**--10**-10*-10**--10**-10*-10**--10**-10*-10**--10-7-10**~~|
B|----------------------------------------------------------------------------------|
G|----------------------------------------------------------------------------------|
D|----------------------------------------------------------------------------------|
A|----------------------------------------------------------------------------------|
E|----------------------------------------------------------------------------------|
Shomoy jeno bishonnotay

e|~10**-10**---10--------------10**-10----------------------------|
B|-----------------12-10-12-10*-------12-10--8--10---8*-----------|
G|--------------------------------------------9----9----9--7-9~~~~|
D|----------------------------------------------------------------|
A|----------------------------------------------------------------|
E|----------------------------------------------------------------|
Osthir aaj tar goti..

e|-12-14-14-14--xx--12--x-14-x-12-xx-14-x---12-14-12-12-xx-14-x-12-x-12-xx-14--|
B|-12-12-12-12--xx--12--x-12-x-12-xx-12-x---12-12-12-12-xx-12-x-12-x-12-xx-12--|
G|-----------------------------------------------------------------------------|
D|-----------------------------------------------------------------------------|
A|-----------------------------------------------------------------------------|
E|-----------------------------------------------------------------------------|
Shukh dukkho eki shathe
e|-10**-15**-10**-15**-15-12----10**-15**-15-12-15**-15-12--15-12-10**-8---8*----8--|
B|------14**-----------------14------------------------------------------9~~~~~~~~~~|
G|----------------------------------------------------------------------------------|
D|----------------------------------------------------------------------------------|
A|----------------------------------------------------------------------------------|
E|----------------------------------------------------------------------------------|
Mishro ek Onubhuti...

Outro Solo:

  Em    Cadd9                             G     Dsus2
e|---------------------------------------|-----------------------------------------|
B|---------------------------------------|-----------------------------------------|
G|-14-14-14-14--xx--14--x-14-x-14-xx--14-|-14-14-14-14--xx-14-x-11-11-11-11-xx-11~~|
D|-12-12-12-12--xx--12--x-12-x-12-xx--12-|-12-12-12-12--xx-12-x-12-12-12-12-xx-12--|
A|---------------------------------------|-----------------------------------------|
E|---------------------------------------|-----------------------------------------|

  Em    Cadd9
e|-----10**--10----10**--10**-10-----------10**--|
B|-10**---------12---------------12-10-10**------|
G|~~~~~~~~~~~~~~~~~~~~~~~~~~~~~~~~~~~~~~~~~------|
D|-----------------------------------------------|
A|-----------------------------------------------|
E|-----------------------------------------------|

  G     Dsus2
e|~10**-10**---10--------------10**-10----------------------------|
B|-----------------12-10-12-10*-------12-10--8--10---8*-----------|
G|--------------------------------------------9----9----9--7-9~~~~|
D|----------------------------------------------------------------|
A|----------------------------------------------------------------|
E|----------------------------------------------------------------|

  Em    Cadd9
e|------------------------------------------------|
B|------------------------------------------------|
G|-14-14-14-12--xx--14-14-14-xx--12—xx--14-14-12--|
D|-12-12-12-12--xx--12-12-12-xx--12-xx--12-12-12--|
A|------------------------------------------------|
E|------------------------------------------------|

  G     Dsus2
e|-------------------------------------------------------|
B|-------------------12------12------12------12------12--|
G|--12--14*--12-14**----14**----14**----14**----14**-----|
D|--12---------------------------------------------------|
A|-------------------------------------------------------|
E|-------------------------------------------------------|
  Em     Cadd9
e|-----------------------------------------------------------------------|
B|-15**-15--15----15-15**-15----15**-15-----15**-15----15**-15-----15**--|
G|--------16--16------------14**--------14**-------14**-------14**-------|
D|-----------------------------------------------------------------------|
A|-----------------------------------------------------------------------|
E|-----------------------------------------------------------------------|
  G      Dsus2
e|------------------------------------------------------------------------------15**~|
B|15----15**15----15**15----15**15----15**15----15**15----15**15----15**15----15**---|
G|--14**------14**------14**------14**------14**------14**------14**------14**-------|
D|-----------------------------------------------------------------------------------|
A|-----------------------------------------------------------------------------------|
E|-----------------------------------------------------------------------------------|
  Em    Cadd9                             Cadd9        Dsus2
e|~~15-12-10-12--------------------------|---10--------------------------------------|
B|--------------15**--15-12-10**-15**-12-|------12-10**--8---10---8**----------------|
G|---------------------------------------|-----------------9----9------9--7---9------|
D|---------------------------------------|-------------------------------------------|
A|---------------------------------------|-------------------------------------------|
E|---------------------------------------|-------------------------------------------|

*Note: It may sound better if power chords are used in the entire song. For Acoustic 
users, using Em7 instead of Em, Cadd9 instead of C & Dsus2 instead of D is recommended.


=-=-= Legend =-=-=
~  - Let ring
/  - Slide to required note
h  - Hammer on
^  - Pull off
♦  - Harmonics
** - Bend fully to the required pitch
*  - Bend half to the required pitch
Добавлено: 25.01.2014
Другие материалы по этой песне:

Страница создана 12.06.2012
http://primanota.ru/nemesis/obocheton-chords.htm
Привет, Гость.
Предлагаем пройти революционный курс по гитаре.
Подарок от PrimaNota.Ru, забирай!