PrimaNota.ru - самый крупный в мире бесплатный архив песенных текстов, аккордов, табулатур и нот


Nemesis - Nirbasson - аккорды и текст

Регистрация Запомнить меня
Войти через:  Facebook Google Twitter Vk Yandex Mail.ru

Nemesis - Nirbasson - аккорды и текст

Печатать
Просмотров: 101
Уроки эстрадного вокала в Санкт-Петербурге
Nirbasson
Nemesis
Nirbashon Nemesis
Album: Tritio Jatra

GREAT SONG, I THINK THIS IS PLAYED LIKE THIS...

**/tune half step down\**

Bm :x 2 4 4 3 2
A  :0 0 2 2 2 0
F#m:2 4 4 2 2 2
c#m:X 4 6 6 5 4
D  :X 5 7 7 7 5

VERSE 1:

Bm     A     F#m    C#m    D  (OR VERSE RIFF)
Etodiner pore o je tumi ashbe
Bm     A     F#m    C#m    D 
Kokhon kothay kar shathe o kibhabe
Bm     A     F#m    C#m    D 
Tomar jaiga nei ekhane tobu dekhbo
Bm     A     F#m    C#m    D 
Tomar rong e ei jaiga veshe utheche

PRE CHORUS:

Bm                 C#m    D 
Tomar jonne shobai shukhe

CHORUS:

A                  Bm
Ojotha khob rakha pore thaka Moneroi majhe
A                  Bm
Asbe ar kobe bashtobota

A                  Bm
Sohosha bhor utha moho kata hotasha je
A         Bm       CHORUS END RIFF(given at the end)
Ashbe abir bhabe osthirotay

VERSE 2:

Tumi ashbe bole tai protikkhonei
Acche shobai mukhorito tomaroi gaan e
Ami shudhu shune jai obirame
Rongin ttuloy megh er drishti chuye thake

PRE CHORUS:

Tomar shone 
koto jone

CHORUS    ^^^^^

REFRAIN:

A        Bm    F#m
Mon er gobhire ami
A        Bm    F#m
Bhenge cholechi shob e
A        Bm    F#m
Notun shur e bhabi
A
Asha shob dure chole jai
D
Hotasha amay khuje pay
Bm              CHORUS END RIFF(given at the end)
Oshohay kolponay kothay tumi
Bm     D        A             Bm
Tomari Prarthonay royechi ojothay
       D        A             Bm
Opekkhar prohore chera shopno bune jay
       D        A             Bm
Oshombhotter rekhapote shada paler notun shur
Bm     D        A       
Haat baranu tomar dike aaj.....

iNTRO...
CHORUS:

A             D
ato diner poreo je..


$$$  INTRO RIFF: $$$

pluck the followings:

e|--0-----0-----0-----0-----0-----0-----0--0-----------------------------------------------|
B|--0-----0-----0-----0-----0-----0-----0--0-----------------------------------------------|
G|--4-----4-----4-----4-----6-----6-----6--6-----------------------------------------------|
D|--4-----4-----4-----4-----6-----6-----6--6-----------------------------------------------|
A|--2-----2-----0-----0-----0-----0-----4--5-----------------------------------------------|
E|--x-----x-----x-----x-----x-----x-----x--x-----------------------------------------------|

VERSE RIFF:

    Etodiner pore o je tumi ashbe.....CONTINUES SAME

      B          A           F#         C# D (power chords) 
e|--0-----0-----0-----0-----0-----0-----0--0-----------------------------------------------|
B|--0-----0-----0-----0-----0-----0-----0--0-----------------------------------------------|
G|--4-----4-----4-----4-----0-----0-----6--6-----------------------------------------------|
D|--4-----4-----2-----2-----4-----4-----6--6-----------------------------------------------|
A|--2-----2-----0-----0-----4-----4-----4--5-----------------------------------------------|
E|--x-----x-----x-----x-----2-----2-----x--x-----------------------------------------------|

**add some muted strum between them according to rhythm.

VARIATION VERSE RIFF 1: (IF U WISH TO PLAY_(MAHER GIVES THESE))

    Kokhon kothay kar shathe o kibhabe....CONTINUES SAME

      B          A           F#         C# D (power chords) 
e|--0-----0-----0-----0-----0-----0-----0--0-----------------------------------------------|
B|--0-----0-----0-----0-----0-----0-----0--0-----------------------------------------------|
G|--4-----4-----4-----4-----0-----0-----6--6-----------------------------------------------|
D|--4-----4-----2-----2-----4-----4-----6--6-----------------------------------------------|
A|--2-----2-----0-----0-----4-----4-----4--5-----------------------------------------------|
E|--x-----x-----x-----x--(2-0-2)--2-----x--x-----------------------------------------------|

VARIATION VERSE RIFF 2: (IF U WISH TO PLAY _(MAHER GIVES THESE))

 
     B          A           F#         C# D (power chords) 
e|--0-----0-----0-----0-----0-----0-----0--0-----------------------------------------------|
B|--0-----0-----0-----0-----0-----0-----0--0-----------------------------------------------|
G|--4-----4-----4-----4-----0-----0-----6--6-----------------------------------------------|
D|--4-----4-----2-----2-----4-----4-----6--6-----------------------------------------------|
A|--2---(2\12)--0-----0-----4-----4-----4--5-----------------------------------------------|
E|--x-----x-----x-----x-----2-----2-----x--x-----------------------------------------------|

PRECHORUS:

Tomar jonne shobai shukhe 
       B        C#    D
e|-----0--------0-----0-----------------------------------------------|
B|-----0--------0-----0-----------------------------------------------|
G|-----4--------6-----6-----------------------------------------------|
D|-----4--------6-----6-----------------------------------------------|
A|-----2--------4-----5-----------------------------------------------|
E|-----x--------x-----x-----------------------------------------------|

CHORUS END RIFF:
       F#    G#    A     D      
e|-----0-----0-----0-----0-------------------------------------|
B|-----0-----0-----0-----0-------------------------------------|
G|-----0-----0-----0-----7-------------------------------------|
D|-----4-----6-----7-----7-------------------------------------|
A|-----4-----6-----5-----5-------------------------------------|
E|-----2-----4-----5-----X-------------------------------------|


TABBED BY ADOR11 CONTACT OR SUGGESTION: smrifat04@gmail.com
Добавлено: 27.11.2013
Другие материалы по этой песне:
  • Аккорды и текст

Страница создана 27.11.2013
http://primanota.ru/nemesis/nirbasson-chords.htm
Привет, Гость.
Предлагаем пройти революционный курс по гитаре.
Подарок от PrimaNota.Ru, забирай!