PrimaNota.ru - самый крупный в мире бесплатный архив песенных текстов, аккордов, табулатур и нот


Nemesek - Hellyeah - таба, видео

Регистрация Запомнить меня
Войти через:  Facebook Google Twitter Vk Yandex Mail.ru

Nemesek - Hellyeah - таба, видео

Печатать
Просмотров: 107
-------------------------------------------------------------------------------
                             HellYeah - NEMESEK
-------------------------------------------------------------------------------
Tabbed by: VASCO
E-mail: smvasco@hotmail.com

Tuning: D E A D G B e

Intro
e|----------------------------------------------------------------------|
B|----------------------------------------------------------------------|
G|----------------------------------------------------------------------|
D|----------------------------------------------------------------------|
A|----------------------------------------------------------------------|
E|--5--2--2----2--5----2--2----2--5----2--2--2----------5--8--5---------|
D|--3--0--0----0--3----0--0----0--3----0--0--0---4--7-----------7--4--0-|
       
e|----------------------------------------------------------------------------------------------|
B|----------------------------------------------------------------------------------------------|
G|----------------------------------------------------------------------------------------------|
D|----------------------------------------------------------------------------------------------|
A|-----------------------------------------------------------------------------9--6-------------|
E|--5--2--2----2--5----2--2----2--5----2--2--2----------5--8--5----------8--5--------8--5-------|
D|--3--0--0----0--3----0--0----0--3----0--0--0---4--7-----------7--4--0--------------------7--4-|

Estrofa I
e||----------------------------------------------------------------------||
B||----------------------------------------------------------------------||
G||.--------------------------------------------------------------------.||
D||----------------------------------------------------------------------|| X 3
A||.--------------------------------------------------------------------.||
E||--5--2--2----2--5----2--2----2--5----2--2--2----------5--8--5---------||
D||--3--0--0----0--3----0--0----0--3----0--0--0---4--7-----------7--4--0-||

e|-------------------------------------------------------------|
B|-------------------------------------------------------------|
G|-------------------------------------------------------------|
D|-------------------------------------------------------------|
E|--5--2--2----2--5----2--2----2--5----2--2--2----3------------|
D|--3--0--0----0--3----0--0----0--3----0--0--0----1--\\--13~---|

Fig. 1
e||------------------------------|
B||------------------------------|
G||.-----------------------------|
D||------------------------------|
A||.-----------------------------|
E||------------------------------|
D||-6-5-3-3--3-3-3-3-3-3--3-3-3--|

              1, 2, 3                                   4
e|--------------------------------|-------------------------------------------||
B|--------------------------------|-------------------------------------------||
G|--------------------------------|------------------------------------------.||
D|--------------------------------|-------------------------------------------|| X 4
A|--------------------------------|------------------------------------------.||
E|----------------8-6-5-0---------|----------------8-6-5-0---------5----------||
D|-6-5-3-3--3-3-3---------8-6-5-0-|-6-5-3-3--3-3-3---------8-6-5-0-3---3\15~--||

Estrofa II
e|--------------------------------------------------------|
B|--------------------------------------------------------|
G|--------------------------------------------------------|
D|--------------------------------------------------------|
A|--------------------------------------------------------|
E|--5--2--2----2--8----2--2----2--5----2--2--2---3-3-3-3--|
D|--3--0--0----0--6----0--0----0--3----0--0--0---1-1-1-1--|

e||----------------------------------------------------------------------||
B||----------------------------------------------------------------------||
G||.--------------------------------------------------------------------.||
D||----------------------------------------------------------------------||
A||.--------------------------------------------------------------------.||
E||--5--2--2----2--8----2--2----2--5----2--2--2--------------------------||
D||--3--0--0----0--6----0--0----0--3----0--0--0---13-12-0-15-13-0-13-12--||

e|--------------------------------------------------------|
B|--------------------------------------------------------|
G|--------------------------------------------------------|
D|--------------------------------------------------------|
A|--------------------------------------------------------|
E|--5--2--2----2--8----2--2----2--5----2--2--2---3-3-3-3--|
D|--3--0--0----0--6----0--0----0--3----0--0--0---1-1-1-1--|

e|-------------------------------|----------------------------------|
B|-------------------------------|----------------------------------|
G|-------------------------------|----------------------------------|
D|-------------------------------|----------------------------------|
A|-------------------------------|----------------------------------|
E|-------------------------------|----------------------------------|
D|-5-5-5-5---5-5-5-5-5-5---5-5-5-|-1-1-1-1---1-1-1-1-0-0-0-0-3-3-3--|

e|-------------------------------|----------------------------------|
B|-------------------------------|----------------------------------|
G|-------------------------------|----------------------------------|
D|-------------------------------|----------------------------------|
A|-------------------------------|----------------------------------|
E|-------------------------------|-3-3-3-3---3-3-3-3-5-5-5-5--------|
D|-5-5-5-5---5-5-5-5-5-5---5-5-5-|---------------------------3-3-3--|

e||-------------------------------------------------|
B||-------------------------------------------------|
G||.------------------------------------------------|
D||-------------------------------------------------|
A||.------------------------------------------------|
E||-----------------6-5-3-8-6-5---------------------|
D||-6-5-3-3--3-3-3--------------8-6-6-5-3-3--3-3-3--|

e|--------------------------------|
B|--------------------------------|
G|--------------------------------|
D|--------------------------------|
A|--------------------------------|
E|-------------8-6-6-5-3-3--3-3-3-|
D|-6-5-3-8-6-5--------------------|

e|-------------------------------|
B|-------------------------------|
G|-------------------------------|
D|-------------------------------|
A|-------------------------------|
E|-6-5-3-8-6-5-------------------|
D|-------------8-6-6-5-3--3-3-3--|

           1               2
e|-------------------|----------||
B|-------------------|----------||
G|-------------------|---------.||
D|-------------------|----------|| X 2
A|-------------------|---------.||
E|-8-6-5-0-----------|-8-6-5-0--||
D|---------8-6-5-0---|----------||


Coro I
                                                                      +   
e||--------------------------------------------------------------------------||
B||--------------------------------------------------------------------------||
G||.------------------------------------------------------------------------.||
D||---10-10-10-9-------------------------10-10-10-9--------------------------|| X 2
A||.------------------------------------------------------------------------.||
E||---8--8--8--7----5-2--2-2--5-2-2-5-2--8--8--8--7----5-2--2-2--5-2---------||
D||---------------0-3-0--0-0--3-0-0-3-0--------------0-3-0--0-0--3-0-(3)~----||

e|--------------------------------------|
B|--------------------------------------|
G|--------------------------------------|
D|--10---10-10-10-10-10-5----7-7-7-7----|
A|--------------------------------------|
E|--8----8--8--8--8--8--3----5-5-5-5----|
D|--------------------------------------|

                                                                     +
e|--------------------------------------------------------------------------|
B|--------------------------------------------------------------------------|
G|--------------------------------------------------------------------------|
D|---10-10-10-9-------------------------10-10-10-9--------------------------|
A|--------------------------------------------------------------------------|
E|---8--8--8--7----5-2--2-2--5-2-2-5-2--8--8--8--7----5-2--2-2--5-2---------|
D|---------------0-3-0--0-0--3-0-0-3-0--------------0-3-0--0-0--3-0-(3)~----|

e|--------------------------------------|
B|--------------------------------------|
G|--------------------------------------|
D|--10---10-10-10-10-10-5----7-7-7-7----|
A|--------------------------------------|
E|--8----8--8--8--8--8--3----5-5-5-5----|
D|--------------------------------------|

e||------------------------------------------||
B||------------------------------------------||
G||.----------------------------------------.||
D||---10-10-10-9-----------------------------|| X 2
A||.----------------------------------------.||
E||---8--8--8--7----5-2--2-2--5-2-2-5-2------||
D||---------------0-3-0--0-0--3-0-0-3-0------||

e|---------------------------------------------------------|
B|---------------------------------------------------------|
G|---------------------------------------------------------|
D|--10-10-10-9---------------------10-9--------------------|
A|---------------------------------8--7--------------------|
E|--8--8--8--7----5-2--3-3-3-2--2--8--7--3-3-3-2--2--5-----|
D|--------------0-3-0--1-1-1-0--0--------1-1-1-0--0--3-----|

Estrofa III
e||----------------------------------------------------------------------||
B||----------------------------------------------------------------------||
G||.--------------------------------------------------------------------.||
D||----------------------------------------------------------------------|| X 3
A||.--------------------------------------------------------------------.||
E||--5--2--2----2--5----2--2----2--5----2--2--2----------5--8--5---------||
D||--3--0--0----0--3----0--0----0--3----0--0--0---4--7-----------7--4--0-||

e|-------------------------------------------------------------|
B|-------------------------------------------------------------|
G|-------------------------------------------------------------|
D|-------------------------------------------------------------|
E|--5--2--2----2--5----2--2----2--5----2--2--2----3------------|
D|--3--0--0----0--3----0--0----0--3----0--0--0----1--\\--13~---|

e|-------------------------------|----------------------------------|
B|-------------------------------|----------------------------------|
G|-------------------------------|----------------------------------|
D|-------------------------------|----------------------------------|
A|-------------------------------|----------------------------------|
E|-------------------------------|----------------------------------|
D|-5-5-5-5---5-5-5-5-5-5---5-5-5-|-1-1-1-1---1-1-1-1-0-0-0-0-3-3-3--|

e|-------------------------------|-------------------------|
B|-------------------------------|-------------------------|
G|-------------------------------|-------------------------|
D|-------------------------------|-------------------------|
A|-------------------------------|-------------------------|
E|-------------------------------|-3-3-3-3---3-3-3-3-5-5---|
D|-5-5-5-5---5-5-5-5-5-5---5-5-5-|-------------------------|

Coro II
                                                                      +   
e||--------------------------------------------------------------------------||
B||--------------------------------------------------------------------------||
G||.------------------------------------------------------------------------.||
D||---10-10-10-9-------------------------10-10-10-9--------------------------|| X 2
A||.------------------------------------------------------------------------.||
E||---8--8--8--7----5-2--2-2--5-2-2-5-2--8--8--8--7----5-2--2-2--5-2---------||
D||---------------0-3-0--0-0--3-0-0-3-0--------------0-3-0--0-0--3-0-(3)~----||

e|--------------------------------------|
B|--------------------------------------|
G|--------------------------------------|
D|--10---10-10-10-10-10-5----7-7-7-7----|
A|--------------------------------------|
E|--8----8--8--8--8--8--3----5-5-5-5----|
D|--------------------------------------|

                                                                     +
e|--------------------------------------------------------------------------|
B|--------------------------------------------------------------------------|
G|--------------------------------------------------------------------------|
D|---10-10-10-9-------------------------10-10-10-9--------------------------|
A|--------------------------------------------------------------------------|
E|---8--8--8--7----5-2--2-2--5-2-2-5-2--8--8--8--7----5-2--2-2--5-2---------|
D|---------------0-3-0--0-0--3-0-0-3-0--------------0-3-0--0-0--3-0-(3)~----|

e|--------------------------------------|
B|--------------------------------------|
G|--------------------------------------|
D|--10---10-10-10-10-10-5----7-7-7-7----|
A|--------------------------------------|
E|--8----8--8--8--8--8--3----5-5-5-5----|
D|--------------------------------------|

e|------------------------------------------|
B|------------------------------------------|
G|------------------------------------------|
D|---10-10-10-9-----------------------------| 
A|------------------------------------------|
E|---8--8--8--7----5-2--2-2--5-2-2-5-2------|
D|---------------0-3-0--0-0--3-0-0-3-0------|

e||------------------------------------------||
B||------------------------------------------||
G||.----------------------------------------.||
D||------------------------------------------|| X 2
A||.--10-10-10-9----------------------------.||
E||---8--8--8--7----5-2--2-2--5-2-2-5-2------||
D||---8--8--8--7--0-3-0--0-0--3-0-0-3-0------||

                                  +
e|---------------------------------------|
B|---------------------------------------|
G|---------------------------------------|
D|---------------------------------------|
A|---10-10-10-9--------------------------|
E|---8--8--8--7----5-2--2-2--------------|
D|---8--8--8--7--0-3-0--0-0--3-0-(3)~----|


Puente
e||-----------------------------|-------------------------------||
B||-----------------------------|-------------------------------||
G||.----------------------------|------------------------------.||
D||-----------------------------|-------------------------------||  X 4
A||.----------------------------|------------------------------.||
E||-----------------------------|-------------------------------||
D||-0-3-5-0--0-3-5-0--0-3-5-0---|--12-10-8-0-7-8-9-8-7-0-8-7-0--||

e||------------|-------------------||
B||------------|-------------------||
G||.-----------|------------------.||
D||------------|-------------------|| X 4
A||.-----------|------------------.||
E||-2-2-2-2-2--|-2-2-2-2-2-2-2-2-2-||
D||-0-0-0-0-0--|-0-0-0-0-0-0-0-0-0-||

                                            +  +   
e|---------------------------|--------------------|
B|---------------------------|--------------------|
G|---------------------------|--------------------|
D|---------------------------|--------------------|
A|---------------------------|--------------------|
E|---------------------------|-------------(3)----|
D|-0-3-5-0--0-3-5-0--0-3-5-0-|-0-3-5-0-3-5----(5)-|

                          +                 +  +   
e|---------------------------|--------------------|
B|---------------------------|--------------------|
G|---------------------------|--------------------|
D|---------------------------|--------------------|
A|---------------------------|-------------(3)----|
E|---------------------------|----------------(5)-|
D|-0-3-5-0--0-3-5-0--0-3-(5)~|-0-3-5-0-3-5--------|

                                            +  +   
e|---------------------------|--------------------|
B|---------------------------|--------------------|
G|---------------------------|--------------------|
D|---------------------------|--------------------|
A|---------------------------|-------------(3)----|
E|---------------------------|-----------------(5)|
D|-0-3-5-0--0-3-5-0--0-3-5-0-|-0-3-5-0-3-5--------|
   
e|---------------------------|----------------------------|--------------|
B|---------------------------|----------------------------|--------------|
G|---------------------------|----------------------------|--------------|
D|---------------------------|----------------------------|--10-10-10-9--|
A|---------------------------|---------------------5-7-12-|--------------|
E|---------------------------|------------5-7-12-0--------|--8--8--8--7--|
D|-0-3-5-0--0-3-5-0--0-3-5-0-|-0-3-5-12-0-----------------|--------------|

Coro III
                                + 
e|-----------------------------------|
B|-----------------------------------|
G|-----------------------------------|
D|-10-10-10-9------------------------|
A|-----------------------------------|
E|-8--8--8--7----5-2--2-2--5-2-------|
D|-------------0-3-0--0-0--3-0-(3)~--|          

                                                                     +   
e|--------------------------------------------------------------------------|
B|--------------------------------------------------------------------------|
G|--------------------------------------------------------------------------|
D|---10-10-10-9-------------------------10-10-10-9--------------------------|
A|--------------------------------------------------------------------------|
E|---8--8--8--7----5-2--2-2--5-2-2-5-2--8--8--8--7----5-2--2-2--5-2---------|
D|---------------0-3-0--0-0--3-0-0-3-0--------------0-3-0--0-0--3-0-(3)~----|

e|--------------------------------------|
B|--------------------------------------|
G|--------------------------------------|
D|--10---10-10-10-10-10-5----7-7-7-7----|
A|--------------------------------------|
E|--8----8--8--8--8--8--3----5-5-5-5----|
D|--------------------------------------|

                                                                     +
e|--------------------------------------------------------------------------|
B|--------------------------------------------------------------------------|
G|--------------------------------------------------------------------------|
D|---10-10-10-9-------------------------10-10-10-9--------------------------|
A|--------------------------------------------------------------------------|
E|---8--8--8--7----5-2--2-2--5-2-2-5-2--8--8--8--7----5-2--2-2--5-2---------|
D|---------------0-3-0--0-0--3-0-0-3-0--------------0-3-0--0-0--3-0-(3)~----|

e|--------------------------------------|
B|--------------------------------------|
G|--------------------------------------|
D|--10---10-10-10-10-10-5----7-7-7-7----|
A|--------------------------------------|
E|--8----8--8--8--8--8--3----5-5-5-5----|
D|--------------------------------------|

e|------------------------------------------|
B|------------------------------------------|
G|------------------------------------------|
D|---10-10-10-9-----------------------------| 
A|------------------------------------------|
E|---8--8--8--7----5-2--2-2--5-2-2-5-2------|
D|---------------0-3-0--0-0--3-0-0-3-0------|

e||------------------------------------------||
B||------------------------------------------||
G||.----------------------------------------.||
D||------------------------------------------|| X 3
A||.--10-10-10-9----------------------------.||
E||---8--8--8--7----5-2--2-2--5-2-2-5-2------||
D||---8--8--8--7--0-3-0--0-0--3-0-0-3-0------||

e|----------------|
B|----------------|
G|----------------|
D|----------------|
A|---10-10-10-9---|
E|---8--8--8--7---|
D|---8--8--8--7---|

************************************

| /   slide up
| \   slide down
| h   hammer-on
| p   pull-off
| ~   vibrato
| +   harmonic
| x   Mute note
| b   Bend
| pb  Pre-bend
| br  Bend release
| pbr Pre-bend release
| brb Bend release bend

************************************
Добавлено: 15.08.2015
Другие материалы по этой песне:
  • Аккорды и текст

Страница создана 15.08.2015
http://primanota.ru/nemesek/hellyeah-chords.htm
Привет, Гость.
Предлагаем пройти революционный курс по гитаре.
Подарок от PrimaNota.Ru, забирай!