PrimaNota.ru - самый крупный в мире бесплатный архив песенных текстов, аккордов, табулатур и нот


Nemesea - Afterlife - текст песни, таба, видео

Регистрация Запомнить меня
Войти через:  Facebook Google Twitter Vk Yandex Mail.ru

Nemesea - Afterlife - текст песни, таба, видео

Печатать
Просмотров: 196
Уроки эстрадного вокала в Санкт-Петербурге
Song: Afterlife
Band: Nemesea
Album: The Quiet Resistance
Tuning: [DADGBE]




Intro[0:00-0:25]

-------------------------------|
-------------------------------|
-4-4-4--4-4-4--4-4-4--7-7-7-7--|
-4-4-4--4-4-4--4-4-4--7-7-7-7--|[x2]
-2-2-2--2-2-2--2-2-2--5-5-5-5--|
-------------------------------|

-------------------------------|
-------------------------------|
-------------------------------|
-5-5-5--5-5-5--5-5-5--7-7-7-7--|[x2]
-5-5-5--5-5-5--5-5-5--7-7-7-7--|
-5-5-5--5-5-5--5-5-5--7-7-7-7--|



Chorus[0:29-0:54]
-------------------------------------------------|
-------------------------------------------------|
-4-4-4--4-4-4--4-4-4--4-4--7-7-7-7--2-2-2-2------|
-4-4-4--4-4-4--4-4-4--4-4--7-7-7-7--2-2-2-2------|[x4]
-2-2-2--2-2-2--2-2-2--2-2--5-5-5-5--0-0-0-0------|
-------------------------------------------------|

Last time
-----------------------------------------|
-----------------------------------------|
-----------------------------------------|
-5-5-5-5-5-5-5-5--7-7-7-7-7-7-7-7--------|
-5-5-5-5-5-5-5-5--7-7-7-7-7-7-7-7--------|
-5-5-5-5-5-5-5-5--7-7-7-7-7-7-7-7--------|

[0:54-1:01]
-------------------------------|
-------------------------------|
-4-4-4--4-4-4--4-4-4--7-7-7-7--|
-4-4-4--4-4-4--4-4-4--7-7-7-7--|
-2-2-2--2-2-2--2-2-2--5-5-5-5--|
-------------------------------|


Repeat Intro:  [1:01-1:26]
Repeat chorus: [1:26-2:05]

Bridge: [2:05-2:30]

-------------------------------------|
-------------------------------------|
-------------------------------------|
-2~--4~--5~--7~--2~--4~--5~--7~------|
-2~--4~--5~--7~--2~--4~--5~--7~------|
-2~--4~--5~--7~--2~--4~--5~--7~------|


Chorus:[2:30-3:02]
-------------------------------------------------|
-------------------------------------------------|
-4-4-4--4-4-4--4-4-4--4-4--7-7-7-7--2-2-2-2------|
-4-4-4--4-4-4--4-4-4--4-4--7-7-7-7--2-2-2-2------|[x4]
-2-2-2--2-2-2--2-2-2--2-2--5-5-5-5--0-0-0-0------|
-------------------------------------------------|

Last time
-----------------------------------------|
-----------------------------------------|
-----------------------------------------|
-5-5-5-5-5-5-5-5--7-7-7-7-7-7-7-7--------|[x2]
-5-5-5-5-5-5-5-5--7-7-7-7-7-7-7-7--------|
-5-5-5-5-5-5-5-5--7-7-7-7-7-7-7-7--------|


-------------------------------|
-------------------------------|
-4-4-4--4-4-4--4-4-4--7-7-7-7--|
-4-4-4--4-4-4--4-4-4--7-7-7-7--|[x2]
-2-2-2--2-2-2--2-2-2--5-5-5-5--|
-------------------------------|

Hehe Enjoy :D
Добавлено: 02.08.2013
Другие материалы по этой песне:
  • Аккорды и текст

Страница создана 26.06.2013
http://primanota.ru/nemesea/afterlife-chords.htm
Привет, Гость.
Предлагаем пройти революционный курс по гитаре.
Подарок от PrimaNota.Ru, забирай!